  0
SECTION
  2
HEADER
  9
$ACADVER
  1
AC1027
  9
$ACADMAINTVER
 70
     8
  9
$DWGCODEPAGE
  3
ANSI_932
  9
$REQUIREDVERSIONS
160
                 0
  9
$LASTSAVEDBY
  1
megumi.kubo
  9
$INSBASE
 10
0.0
 20
0.0
 30
0.0
  9
$EXTMIN
 10
15.499998
 20
50.731474542942
 30
0.0
  9
$EXTMAX
 10
538.290163
 20
362.513852006262
 30
0.0
  9
$LIMMIN
 10
0.0
 20
0.0
  9
$LIMMAX
 10
559.0
 20
400.0
  9
$ORTHOMODE
 70
     0
  9
$REGENMODE
 70
     1
  9
$FILLMODE
 70
     1
  9
$QTEXTMODE
 70
     0
  9
$MIRRTEXT
 70
     1
  9
$LTSCALE
 40
15.0
  9
$ATTMODE
 70
     1
  9
$TEXTSIZE
 40
8.0
  9
$TRACEWID
 40
0.05
  9
$TEXTSTYLE
  7
Standard
  9
$CLAYER
  8
CSLAYER1
  9
$CELTYPE
  6
ByLayer
  9
$CECOLOR
 62
   256
  9
$CELTSCALE
 40
1.0
  9
$DISPSILH
 70
     0
  9
$DIMSCALE
 40
1.0
  9
$DIMASZ
 40
0.18
  9
$DIMEXO
 40
0.0625
  9
$DIMDLI
 40
0.38
  9
$DIMRND
 40
0.0
  9
$DIMDLE
 40
0.0
  9
$DIMEXE
 40
0.18
  9
$DIMTP
 40
0.0
  9
$DIMTM
 40
0.0
  9
$DIMTXT
 40
0.18
  9
$DIMCEN
 40
0.09
  9
$DIMTSZ
 40
0.0
  9
$DIMTOL
 70
     0
  9
$DIMLIM
 70
     0
  9
$DIMTIH
 70
     1
  9
$DIMTOH
 70
     1
  9
$DIMSE1
 70
     0
  9
$DIMSE2
 70
     0
  9
$DIMTAD
 70
     0
  9
$DIMZIN
 70
     0
  9
$DIMBLK
  1

  9
$DIMASO
 70
     1
  9
$DIMSHO
 70
     1
  9
$DIMPOST
  1

  9
$DIMAPOST
  1

  9
$DIMALT
 70
     0
  9
$DIMALTD
 70
     2
  9
$DIMALTF
 40
25.4
  9
$DIMLFAC
 40
1.0
  9
$DIMTOFL
 70
     0
  9
$DIMTVP
 40
0.0
  9
$DIMTIX
 70
     0
  9
$DIMSOXD
 70
     0
  9
$DIMSAH
 70
     0
  9
$DIMBLK1
  1

  9
$DIMBLK2
  1

  9
$DIMSTYLE
  2
Standard
  9
$DIMCLRD
 70
     0
  9
$DIMCLRE
 70
     0
  9
$DIMCLRT
 70
     0
  9
$DIMTFAC
 40
1.0
  9
$DIMGAP
 40
0.09
  9
$DIMJUST
 70
     0
  9
$DIMSD1
 70
     0
  9
$DIMSD2
 70
     0
  9
$DIMTOLJ
 70
     1
  9
$DIMTZIN
 70
     0
  9
$DIMALTZ
 70
     0
  9
$DIMALTTZ
 70
     0
  9
$DIMUPT
 70
     0
  9
$DIMDEC
 70
     4
  9
$DIMTDEC
 70
     4
  9
$DIMALTU
 70
     2
  9
$DIMALTTD
 70
     2
  9
$DIMTXSTY
  7
Standard
  9
$DIMAUNIT
 70
     0
  9
$DIMADEC
 70
     0
  9
$DIMALTRND
 40
0.0
  9
$DIMAZIN
 70
     0
  9
$DIMDSEP
 70
    46
  9
$DIMATFIT
 70
     3
  9
$DIMFRAC
 70
     0
  9
$DIMLDRBLK
  1

  9
$DIMLUNIT
 70
     2
  9
$DIMLWD
 70
    -2
  9
$DIMLWE
 70
    -2
  9
$DIMTMOVE
 70
     2
  9
$DIMFXL
 40
1.0
  9
$DIMFXLON
 70
     0
  9
$DIMJOGANG
 40
0.785398163397
  9
$DIMTFILL
 70
     0
  9
$DIMTFILLCLR
 70
     0
  9
$DIMARCSYM
 70
     0
  9
$DIMLTYPE
  6

  9
$DIMLTEX1
  6

  9
$DIMLTEX2
  6

  9
$DIMTXTDIRECTION
 70
     0
  9
$LUNITS
 70
     2
  9
$LUPREC
 70
     4
  9
$SKETCHINC
 40
0.1
  9
$FILLETRAD
 40
0.0
  9
$AUNITS
 70
     0
  9
$AUPREC
 70
     0
  9
$MENU
  1
ACAD
  9
$ELEVATION
 40
0.0
  9
$PELEVATION
 40
0.0
  9
$THICKNESS
 40
0.0
  9
$LIMCHECK
 70
     0
  9
$CHAMFERA
 40
0.0
  9
$CHAMFERB
 40
0.0
  9
$CHAMFERC
 40
0.0
  9
$CHAMFERD
 40
0.0
  9
$SKPOLY
 70
     0
  9
$TDCREATE
 40
2452132.0
  9
$TDUCREATE
 40
2452131.625
  9
$TDUPDATE
 40
2457875.61709368
  9
$TDUUPDATE
 40
2457875.24209368
  9
$TDINDWG
 40
0.0474021065
  9
$TDUSRTIMER
 40
0.0474021065
  9
$USRTIMER
 70
     1
  9
$ANGBASE
 50
0.0
  9
$ANGDIR
 70
     0
  9
$PDMODE
 70
     0
  9
$PDSIZE
 40
0.0
  9
$PLINEWID
 40
0.0
  9
$SPLFRAME
 70
     0
  9
$SPLINETYPE
 70
     6
  9
$SPLINESEGS
 70
     8
  9
$HANDSEED
  5
10A0
  9
$SURFTAB1
 70
     6
  9
$SURFTAB2
 70
     6
  9
$SURFTYPE
 70
     6
  9
$SURFU
 70
     6
  9
$SURFV
 70
     6
  9
$UCSBASE
  2

  9
$UCSNAME
  2

  9
$UCSORG
 10
0.0
 20
0.0
 30
0.0
  9
$UCSXDIR
 10
1.0
 20
0.0
 30
0.0
  9
$UCSYDIR
 10
0.0
 20
1.0
 30
0.0
  9
$UCSORTHOREF
  2

  9
$UCSORTHOVIEW
 70
     0
  9
$UCSORGTOP
 10
0.0
 20
0.0
 30
0.0
  9
$UCSORGBOTTOM
 10
0.0
 20
0.0
 30
0.0
  9
$UCSORGLEFT
 10
0.0
 20
0.0
 30
0.0
  9
$UCSORGRIGHT
 10
0.0
 20
0.0
 30
0.0
  9
$UCSORGFRONT
 10
0.0
 20
0.0
 30
0.0
  9
$UCSORGBACK
 10
0.0
 20
0.0
 30
0.0
  9
$PUCSBASE
  2

  9
$PUCSNAME
  2

  9
$PUCSORG
 10
0.0
 20
0.0
 30
0.0
  9
$PUCSXDIR
 10
1.0
 20
0.0
 30
0.0
  9
$PUCSYDIR
 10
0.0
 20
1.0
 30
0.0
  9
$PUCSORTHOREF
  2

  9
$PUCSORTHOVIEW
 70
     0
  9
$PUCSORGTOP
 10
0.0
 20
0.0
 30
0.0
  9
$PUCSORGBOTTOM
 10
0.0
 20
0.0
 30
0.0
  9
$PUCSORGLEFT
 10
0.0
 20
0.0
 30
0.0
  9
$PUCSORGRIGHT
 10
0.0
 20
0.0
 30
0.0
  9
$PUCSORGFRONT
 10
0.0
 20
0.0
 30
0.0
  9
$PUCSORGBACK
 10
0.0
 20
0.0
 30
0.0
  9
$USERI1
 70
     0
  9
$USERI2
 70
     0
  9
$USERI3
 70
     0
  9
$USERI4
 70
     0
  9
$USERI5
 70
     0
  9
$USERR1
 40
0.0
  9
$USERR2
 40
0.0
  9
$USERR3
 40
0.0
  9
$USERR4
 40
0.0
  9
$USERR5
 40
0.0
  9
$WORLDVIEW
 70
     1
  9
$SHADEDGE
 70
     3
  9
$SHADEDIF
 70
    70
  9
$TILEMODE
 70
     1
  9
$MAXACTVP
 70
    64
  9
$PINSBASE
 10
0.0
 20
0.0
 30
0.0
  9
$PLIMCHECK
 70
     0
  9
$PEXTMIN
 10
1.000000000000E+20
 20
1.000000000000E+20
 30
1.000000000000E+20
  9
$PEXTMAX
 10
-1.000000000000E+20
 20
-1.000000000000E+20
 30
-1.000000000000E+20
  9
$PLIMMIN
 10
0.0
 20
0.0
  9
$PLIMMAX
 10
12.0
 20
9.0
  9
$UNITMODE
 70
     0
  9
$VISRETAIN
 70
     1
  9
$PLINEGEN
 70
     0
  9
$PSLTSCALE
 70
     1
  9
$TREEDEPTH
 70
  3020
  9
$CMLSTYLE
  2
Standard
  9
$CMLJUST
 70
     0
  9
$CMLSCALE
 40
1.0
  9
$PROXYGRAPHICS
 70
     1
  9
$MEASUREMENT
 70
     0
  9
$CELWEIGHT
370
    -1
  9
$ENDCAPS
280
     0
  9
$JOINSTYLE
280
     0
  9
$LWDISPLAY
290
     0
  9
$INSUNITS
 70
     0
  9
$HYPERLINKBASE
  1

  9
$STYLESHEET
  1

  9
$XEDIT
290
     1
  9
$CEPSNTYPE
380
     0
  9
$PSTYLEMODE
290
     1
  9
$FINGERPRINTGUID
  2
{F425DC8B-9A4A-4539-8F73-544435B553BE}
  9
$VERSIONGUID
  2
{FAEB1C32-E019-11D5-929B-00C0DF256EC4}
  9
$EXTNAMES
290
     1
  9
$PSVPSCALE
 40
0.0
  9
$OLESTARTUP
290
     0
  9
$SORTENTS
280
   127
  9
$INDEXCTL
280
     0
  9
$HIDETEXT
280
     1
  9
$XCLIPFRAME
280
     2
  9
$HALOGAP
280
     0
  9
$OBSCOLOR
 70
   257
  9
$OBSLTYPE
280
     0
  9
$INTERSECTIONDISPLAY
280
     0
  9
$INTERSECTIONCOLOR
 70
   257
  9
$DIMASSOC
280
     2
  9
$PROJECTNAME
  1

  9
$CAMERADISPLAY
290
     0
  9
$LENSLENGTH
 40
50.0
  9
$CAMERAHEIGHT
 40
0.0
  9
$STEPSPERSEC
 40
2.0
  9
$STEPSIZE
 40
6.0
  9
$3DDWFPREC
 40
2.0
  9
$PSOLWIDTH
 40
0.25
  9
$PSOLHEIGHT
 40
4.0
  9
$LOFTANG1
 40
1.570796326795
  9
$LOFTANG2
 40
1.570796326795
  9
$LOFTMAG1
 40
0.0
  9
$LOFTMAG2
 40
0.0
  9
$LOFTPARAM
 70
     7
  9
$LOFTNORMALS
280
     1
  9
$LATITUDE
 40
37.795
  9
$LONGITUDE
 40
-122.394
  9
$NORTHDIRECTION
 40
0.0
  9
$TIMEZONE
 70
 -8000
  9
$LIGHTGLYPHDISPLAY
280
     1
  9
$TILEMODELIGHTSYNCH
280
     1
  9
$SOLIDHIST
280
     0
  9
$SHOWHIST
280
     1
  9
$DWFFRAME
280
     2
  9
$DGNFRAME
280
     2
  9
$REALWORLDSCALE
290
     1
  9
$INTERFERECOLOR
 62
   256
  9
$CSHADOW
280
     0
  9
$SHADOWPLANELOCATION
 40
0.0
  0
ENDSEC
  0
SECTION
  2
CLASSES
  0
CLASS
  1
ACDBDICTIONARYWDFLT
  2
AcDbDictionaryWithDefault
  3
ObjectDBX Classes
 90
        0
 91
        5
280
     0
281
     0
  0
CLASS
  1
SCALE
  2
AcDbScale
  3
ObjectDBX Classes
 90
     1153
 91
        5
280
     0
281
     0
  0
CLASS
  1
VISUALSTYLE
  2
AcDbVisualStyle
  3
ObjectDBX Classes
 90
     4095
 91
        5
280
     0
281
     0
  0
CLASS
  1
MATERIAL
  2
AcDbMaterial
  3
ObjectDBX Classes
 90
     1153
 91
        5
280
     0
281
     0
  0
CLASS
  1
TABLESTYLE
  2
AcDbTableStyle
  3
ObjectDBX Classes
 90
     4095
 91
        5
280
     0
281
     0
  0
CLASS
  1
MLEADERSTYLE
  2
AcDbMLeaderStyle
  3
ACDB_MLEADERSTYLE_CLASS
 90
     4095
 91
        5
280
     0
281
     0
  0
CLASS
  1
SUN
  2
AcDbSun
  3
SCENEOE
 90
     1153
 91
        5
280
     0
281
     0
  0
CLASS
  1
DIMASSOC
  2
AcDbDimAssoc
  3
"AcDbDimAssoc|Product Desc:     AcDim ARX App For Dimension|Company:          Autodesk, Inc.|WEB Address:      www.autodesk.com"
 90
        0
 91
        4
280
     0
281
     0
  0
CLASS
  1
SORTENTSTABLE
  2
AcDbSortentsTable
  3
ObjectDBX Classes
 90
        0
 91
        4
280
     0
281
     0
  0
CLASS
  1
DICTIONARYVAR
  2
AcDbDictionaryVar
  3
ObjectDBX Classes
 90
        0
 91
        4
280
     0
281
     0
  0
CLASS
  1

  2
CaLongTransaction
  3

 90
        0
 91
        4
280
     0
281
     0
  0
CLASS
  1
CELLSTYLEMAP
  2
AcDbCellStyleMap
  3
ObjectDBX Classes
 90
     1152
 91
        4
280
     0
281
     0
  0
CLASS
  1
XRECORD
  2
AcDbXrecord
  3
ObjectDBX Classes
 90
        0
 91
        1
280
     0
281
     0
  0
CLASS
  1
LWPOLYLINE
  2
AcDbPolyline
  3
ObjectDBX Classes
 90
        0
 91
        1
280
     0
281
     1
  0
CLASS
  1
HATCH
  2
AcDbHatch
  3
ObjectDBX Classes
 90
        0
 91
        1
280
     0
281
     1
  0
CLASS
  1
ACDBPLACEHOLDER
  2
AcDbPlaceHolder
  3
ObjectDBX Classes
 90
        0
 91
        1
280
     0
281
     0
  0
CLASS
  1
LAYOUT
  2
AcDbLayout
  3
ObjectDBX Classes
 90
        0
 91
        1
280
     0
281
     0
  0
ENDSEC
  0
SECTION
  2
TABLES
  0
TABLE
  2
VPORT
  5
8
330
0
100
AcDbSymbolTable
 70
     1
  0
VPORT
  5
3B
330
8
100
AcDbSymbolTableRecord
100
AcDbViewportTableRecord
  2
*Active
 70
     0
 10
0.0
 20
0.0
 11
1.0
 21
1.0
 12
276.8950805
 22
206.622663274602
 13
0.0
 23
0.0
 14
0.5
 24
0.5
 15
0.5
 25
0.5
 16
0.0
 26
0.0
 36
1.0
 17
0.0
 27
0.0
 37
0.0
 40
358.019511203659
 41
1.489432703003
 42
50.0
 43
0.0
 44
0.0
 50
0.0
 51
0.0
 71
    16
 72
   100
 73
     1
 74
     3
 75
     0
 76
     0
 77
     0
 78
     0
281
     0
 65
     1
110
0.0
120
0.0
130
0.0
111
1.0
121
0.0
131
0.0
112
0.0
122
1.0
132
0.0
 79
     0
146
0.0
348
768
 60
     3
 61
     5
292
     1
282
     1
141
0.0
142
0.0
 63
   256
361
785
  0
ENDTAB
  0
TABLE
  2
LTYPE
  5
5
330
0
100
AcDbSymbolTable
 70
    10
  0
LTYPE
  5
14
330
5
100
AcDbSymbolTableRecord
100
AcDbLinetypeTableRecord
  2
ByBlock
 70
     0
  3

 72
    65
 73
     0
 40
0.0
  0
LTYPE
  5
15
330
5
100
AcDbSymbolTableRecord
100
AcDbLinetypeTableRecord
  2
ByLayer
 70
     0
  3

 72
    65
 73
     0
 40
0.0
  0
LTYPE
  5
16
330
5
100
AcDbSymbolTableRecord
100
AcDbLinetypeTableRecord
  2
CONTINUOUS
 70
     0
  3
Solid line
 72
    65
 73
     0
 40
0.0
  0
LTYPE
  5
21
330
5
100
AcDbSymbolTableRecord
100
AcDbLinetypeTableRecord
  2
DASHED
 70
     0
  3
__ __ __ __ __ __ __ __ __ __ __ __ __ __ __
 72
    65
 73
     2
 40
0.75
 49
0.5
 74
     0
 49
-0.25
 74
     0
  0
LTYPE
  5
22
330
5
100
AcDbSymbolTableRecord
100
AcDbLinetypeTableRecord
  2
HIDDEN
 70
     0
  3
_ _ _ _ _ _ _ _ _ _ _ _ _ _ _ _ _ _ _ _ _ _ _
 72
    65
 73
     2
 40
0.375
 49
0.25
 74
     0
 49
-0.125
 74
     0
  0
LTYPE
  5
23
330
5
100
AcDbSymbolTableRecord
100
AcDbLinetypeTableRecord
  2
DOT
 70
     0
  3
...............................................
 72
    65
 73
     2
 40
0.25
 49
0.0
 74
     0
 49
-0.25
 74
     0
  0
LTYPE
  5
24
330
5
100
AcDbSymbolTableRecord
100
AcDbLinetypeTableRecord
  2
DASHDOT
 70
     0
  3
__ . __ . __ . __ . __ . __ . __ . __ . __ . __
 72
    65
 73
     4
 40
1.0
 49
0.5
 74
     0
 49
-0.25
 74
     0
 49
0.0
 74
     0
 49
-0.25
 74
     0
  0
LTYPE
  5
25
330
5
100
AcDbSymbolTableRecord
100
AcDbLinetypeTableRecord
  2
DIVIDE
 70
     0
  3
__ . . __ . . __ . . __ . . __ . . __ . . __
 72
    65
 73
     6
 40
1.25
 49
0.5
 74
     0
 49
-0.25
 74
     0
 49
0.0
 74
     0
 49
-0.25
 74
     0
 49
0.0
 74
     0
 49
-0.25
 74
     0
  0
LTYPE
  5
26
330
5
100
AcDbSymbolTableRecord
100
AcDbLinetypeTableRecord
  2
CENTER
 70
     0
  3
____ _ ____ _ ____ _ ____ _ ____ _ ____ _ ____ 
 72
    65
 73
     4
 40
2.0
 49
1.25
 74
     0
 49
-0.25
 74
     0
 49
0.25
 74
     0
 49
-0.25
 74
     0
  0
LTYPE
  5
27
330
5
100
AcDbSymbolTableRecord
100
AcDbLinetypeTableRecord
  2
PHANTOM
 70
     0
  3
______  __  __  ______  __  __  ______  __  __ 
 72
    65
 73
     6
 40
2.5
 49
1.25
 74
     0
 49
-0.25
 74
     0
 49
0.25
 74
     0
 49
-0.25
 74
     0
 49
0.25
 74
     0
 49
-0.25
 74
     0
  0
LTYPE
  5
28
330
5
100
AcDbSymbolTableRecord
100
AcDbLinetypeTableRecord
  2
BORDER
 70
     0
  3
__ __ . __ __ . __ __ . __ __ . __ __ . __ __ .
 72
    65
 73
     6
 40
1.75
 49
0.5
 74
     0
 49
-0.25
 74
     0
 49
0.5
 74
     0
 49
-0.25
 74
     0
 49
0.0
 74
     0
 49
-0.25
 74
     0
  0
LTYPE
  5
9B5
330
5
100
AcDbSymbolTableRecord
100
AcDbLinetypeTableRecord
  2
DYN_DIM
 70
     0
  3
Dashed dynamic dimension line
 72
    65
 73
     2
 40
1.867754735868
 49
0.533644210248
 74
     0
 49
-1.33411052562
 74
     0
  0
ENDTAB
  0
TABLE
  2
LAYER
  5
2
330
0
100
AcDbSymbolTable
 70
    18
  0
LAYER
  5
10
330
2
100
AcDbSymbolTableRecord
100
AcDbLayerTableRecord
  2
0
 70
     0
 62
     7
  6
CONTINUOUS
370
    -3
390
F
347
77F
348
0
  0
LAYER
  5
29
330
2
100
AcDbSymbolTableRecord
100
AcDbLayerTableRecord
  2
CSLAYER1
 70
     0
 62
     7
  6
CONTINUOUS
370
    -3
390
F
347
77F
348
0
  0
LAYER
  5
32
330
2
100
AcDbSymbolTableRecord
100
AcDbLayerTableRecord
  2
CSLAYER10
 70
     0
 62
     3
  6
CONTINUOUS
370
    -3
390
F
347
77F
348
0
  0
LAYER
  5
996
330
2
100
AcDbSymbolTableRecord
100
AcDbLayerTableRecord
  2
Defpoints
 70
     0
 62
     7
  6
CONTINUOUS
290
     0
370
    -3
390
F
347
77F
348
0
  0
ENDTAB
  0
TABLE
  2
STYLE
  5
3
330
0
100
AcDbSymbolTable
 70
     3
  0
STYLE
  5
11
330
3
100
AcDbSymbolTableRecord
100
AcDbTextStyleTableRecord
  2
Standard
 70
     0
 40
0.0
 41
1.0
 50
0.0
 71
     0
 42
8.0
  3
txt
  4

  0
STYLE
  5
39
330
3
100
AcDbSymbolTableRecord
100
AcDbTextStyleTableRecord
  2
FX_FONT
 70
     0
 40
1.0
 41
1.0
 50
0.0
 71
     0
 42
1.0
  3
monotxt
  4
bigfont
  0
STYLE
  5
9B4
330
3
100
AcDbSymbolTableRecord
100
AcDbTextStyleTableRecord
  2
DYN_DIM
 70
     0
 40
0.0
 41
1.0
 50
0.0
 71
     0
 42
0.2
  3
txt
  4

  0
ENDTAB
  0
TABLE
  2
VIEW
  5
6
330
0
100
AcDbSymbolTable
 70
     0
  0
ENDTAB
  0
TABLE
  2
UCS
  5
7
330
0
100
AcDbSymbolTable
 70
     0
  0
ENDTAB
  0
TABLE
  2
APPID
  5
9
330
0
100
AcDbSymbolTable
 70
     3
  0
APPID
  5
12
330
9
100
AcDbSymbolTableRecord
100
AcDbRegAppTableRecord
  2
ACAD
 70
     0
  0
APPID
  5
9E2
330
9
100
AcDbSymbolTableRecord
100
AcDbRegAppTableRecord
  2
AcadAnnotative
 70
     0
  0
APPID
  5
C4A
330
9
100
AcDbSymbolTableRecord
100
AcDbRegAppTableRecord
  2
ACAD_MLEADERVER
 70
     0
  0
ENDTAB
  0
TABLE
  2
DIMSTYLE
  5
A
330
0
100
AcDbSymbolTable
 70
     1
100
AcDbDimStyleTable
  0
DIMSTYLE
105
3A
330
A
100
AcDbSymbolTableRecord
100
AcDbDimStyleTableRecord
  2
Standard
 70
     0
178
     0
340
11
  0
ENDTAB
  0
TABLE
  2
BLOCK_RECORD
  5
1
330
0
100
AcDbSymbolTable
 70
   108
  0
BLOCK_RECORD
  5
1D
102
{ACAD_XDICTIONARY
360
9E3
102
}
330
1
100
AcDbSymbolTableRecord
100
AcDbBlockTableRecord
  2
*Model_Space
340
1E
 70
     0
280
     1
281
     0
  0
BLOCK_RECORD
  5
1B
330
1
100
AcDbSymbolTableRecord
100
AcDbBlockTableRecord
  2
*Paper_Space
340
1C
 70
     0
280
     1
281
     0
  0
BLOCK_RECORD
  5
48
330
1
100
AcDbSymbolTableRecord
100
AcDbBlockTableRecord
  2
FXDIM0000
340
0
 70
     0
280
     1
281
     0
  0
BLOCK_RECORD
  5
50
330
1
100
AcDbSymbolTableRecord
100
AcDbBlockTableRecord
  2
FXDIM0001
340
0
 70
     0
280
     1
281
     0
  0
BLOCK_RECORD
  5
58
330
1
100
AcDbSymbolTableRecord
100
AcDbBlockTableRecord
  2
FXDIM0002
340
0
 70
     0
280
     1
281
     0
  0
BLOCK_RECORD
  5
60
330
1
100
AcDbSymbolTableRecord
100
AcDbBlockTableRecord
  2
FXDIM0003
340
0
 70
     0
280
     1
281
     0
  0
BLOCK_RECORD
  5
89
330
1
100
AcDbSymbolTableRecord
100
AcDbBlockTableRecord
  2
FXDIM0004
340
0
 70
     0
280
     1
281
     0
  0
BLOCK_RECORD
  5
91
330
1
100
AcDbSymbolTableRecord
100
AcDbBlockTableRecord
  2
FXDIM0005
340
0
 70
     0
280
     1
281
     0
  0
BLOCK_RECORD
  5
99
330
1
100
AcDbSymbolTableRecord
100
AcDbBlockTableRecord
  2
FXDIM0006
340
0
 70
     0
280
     1
281
     0
  0
BLOCK_RECORD
  5
187
330
1
100
AcDbSymbolTableRecord
100
AcDbBlockTableRecord
  2
FXDIM0007
340
0
 70
     0
280
     1
281
     0
  0
BLOCK_RECORD
  5
1D1
330
1
100
AcDbSymbolTableRecord
100
AcDbBlockTableRecord
  2
FXDIM0008
340
0
 70
     0
280
     1
281
     0
  0
BLOCK_RECORD
  5
1D5
330
1
100
AcDbSymbolTableRecord
100
AcDbBlockTableRecord
  2
FXDIM0009
340
0
 70
     0
280
     1
281
     0
  0
BLOCK_RECORD
  5
21B
330
1
100
AcDbSymbolTableRecord
100
AcDbBlockTableRecord
  2
FXDIM0010
340
0
 70
     0
280
     1
281
     0
  0
BLOCK_RECORD
  5
223
330
1
100
AcDbSymbolTableRecord
100
AcDbBlockTableRecord
  2
FXDIM0011
340
0
 70
     0
280
     1
281
     0
  0
BLOCK_RECORD
  5
286
330
1
100
AcDbSymbolTableRecord
100
AcDbBlockTableRecord
  2
FXDIM0012
340
0
 70
     0
280
     1
281
     0
  0
BLOCK_RECORD
  5
28E
330
1
100
AcDbSymbolTableRecord
100
AcDbBlockTableRecord
  2
FXDIM0013
340
0
 70
     0
280
     1
281
     0
  0
BLOCK_RECORD
  5
312
330
1
100
AcDbSymbolTableRecord
100
AcDbBlockTableRecord
  2
FXDIM0014
340
0
 70
     0
280
     1
281
     0
  0
BLOCK_RECORD
  5
325
330
1
100
AcDbSymbolTableRecord
100
AcDbBlockTableRecord
  2
FXDIM0015
340
0
 70
     0
280
     1
281
     0
  0
BLOCK_RECORD
  5
39A
330
1
100
AcDbSymbolTableRecord
100
AcDbBlockTableRecord
  2
FXDIM0016
340
0
 70
     0
280
     1
281
     0
  0
BLOCK_RECORD
  5
3BF
330
1
100
AcDbSymbolTableRecord
100
AcDbBlockTableRecord
  2
BLKF0000
340
0
 70
     0
280
     1
281
     0
  0
BLOCK_RECORD
  5
3C9
330
1
100
AcDbSymbolTableRecord
100
AcDbBlockTableRecord
  2
BLKF0001
340
0
 70
     0
280
     1
281
     0
  0
BLOCK_RECORD
  5
3D3
330
1
100
AcDbSymbolTableRecord
100
AcDbBlockTableRecord
  2
BLKF0002
340
0
 70
     0
280
     1
281
     0
  0
BLOCK_RECORD
  5
3D9
330
1
100
AcDbSymbolTableRecord
100
AcDbBlockTableRecord
  2
BLKF0003
340
0
 70
     0
280
     1
281
     0
  0
BLOCK_RECORD
  5
3E3
330
1
100
AcDbSymbolTableRecord
100
AcDbBlockTableRecord
  2
BLKF0004
340
0
 70
     0
280
     1
281
     0
  0
BLOCK_RECORD
  5
3F5
330
1
100
AcDbSymbolTableRecord
100
AcDbBlockTableRecord
  2
BLKF0005
340
0
 70
     0
280
     1
281
     0
  0
BLOCK_RECORD
  5
3FF
330
1
100
AcDbSymbolTableRecord
100
AcDbBlockTableRecord
  2
BLKF0006
340
0
 70
     0
280
     1
281
     0
  0
BLOCK_RECORD
  5
96C
330
1
100
AcDbSymbolTableRecord
100
AcDbBlockTableRecord
  2
AD400C8
340
0
 70
     0
280
     1
281
     0
  0
BLOCK_RECORD
  5
9A7
330
1
100
AcDbSymbolTableRecord
100
AcDbBlockTableRecord
  2
_OPEN30
340
0
 70
     0
280
     1
281
     0
  0
BLOCK_RECORD
  5
9B7
330
1
100
AcDbSymbolTableRecord
100
AcDbBlockTableRecord
  2
AD40188
340
0
 70
     0
280
     1
281
     0
  0
BLOCK_RECORD
  5
9EC
102
{ACAD_XDICTIONARY
360
A12
102
}
330
1
100
AcDbSymbolTableRecord
100
AcDbBlockTableRecord
  2
AD400F8
340
0
 70
     0
280
     1
281
     0
  0
BLOCK_RECORD
  5
AAF
102
{ACAD_XDICTIONARY
360
AD4
102
}
330
1
100
AcDbSymbolTableRecord
100
AcDbBlockTableRecord
  2
AD40038
340
0
 70
     0
280
     1
281
     0
  0
BLOCK_RECORD
  5
ADB
102
{ACAD_XDICTIONARY
360
B01
102
}
330
1
100
AcDbSymbolTableRecord
100
AcDbBlockTableRecord
  2
AD40178
340
0
 70
     0
280
     1
281
     0
  0
BLOCK_RECORD
  5
B0C
102
{ACAD_XDICTIONARY
360
B32
102
}
330
1
100
AcDbSymbolTableRecord
100
AcDbBlockTableRecord
  2
AD40158
340
0
 70
     0
280
     1
281
     0
  0
BLOCK_RECORD
  5
B39
102
{ACAD_XDICTIONARY
360
B5F
102
}
330
1
100
AcDbSymbolTableRecord
100
AcDbBlockTableRecord
  2
AD400B8
340
0
 70
     0
280
     1
281
     0
  0
BLOCK_RECORD
  5
B65
102
{ACAD_XDICTIONARY
360
B8B
102
}
330
1
100
AcDbSymbolTableRecord
100
AcDbBlockTableRecord
  2
AD40128
340
0
 70
     0
280
     1
281
     0
  0
BLOCK_RECORD
  5
B97
102
{ACAD_XDICTIONARY
360
BBD
102
}
330
1
100
AcDbSymbolTableRecord
100
AcDbBlockTableRecord
  2
15A80190
340
0
 70
     0
280
     1
281
     0
  0
ENDTAB
  0
ENDSEC
  0
SECTION
  2
BLOCKS
  0
BLOCK
  5
75F
330
1D
100
AcDbEntity
  8
0
100
AcDbBlockBegin
  2
*Model_Space
 70
     0
 10
0.0
 20
0.0
 30
0.0
  3
*Model_Space
  1

  0
ENDBLK
  5
760
330
1D
100
AcDbEntity
  8
0
100
AcDbBlockEnd
  0
BLOCK
  5
761
330
1B
100
AcDbEntity
 67
     1
  8
0
100
AcDbBlockBegin
  2
*Paper_Space
 70
     0
 10
0.0
 20
0.0
 30
0.0
  3
*Paper_Space
  1

  0
ENDBLK
  5
762
330
1B
100
AcDbEntity
 67
     1
  8
0
100
AcDbBlockEnd
  0
BLOCK
  5
47
330
48
100
AcDbEntity
  8
CSLAYER1
100
AcDbBlockBegin
  2
FXDIM0000
 70
     0
 10
0.0
 20
0.0
 30
0.0
  3
FXDIM0000
  1

  0
TEXT
  5
49
330
48
100
AcDbEntity
  8
CSLAYER1
 62
     7
100
AcDbText
 10
223.75
 20
361.0
 30
0.0
 40
4.0
  1
1
 41
0.9375
  7
FX_FONT
 72
     5
 11
226.25
 21
361.0
 31
0.0
100
AcDbText
  0
LINE
  5
4A
330
48
100
AcDbEntity
  8
CSLAYER1
  6
Continuous
 62
     7
100
AcDbLine
 10
249.938973
 20
319.663559
 30
0.0
 11
227.5
 21
358.669873
 31
0.0
  0
CIRCLE
  5
4B
330
48
100
AcDbEntity
  8
CSLAYER1
  6
Continuous
 62
     7
100
AcDbCircle
 10
249.938973
 20
319.663559
 30
0.0
 40
0.5
  0
CIRCLE
  5
4C
330
48
100
AcDbEntity
  8
CSLAYER1
  6
Continuous
 62
     7
100
AcDbCircle
 10
249.938973
 20
319.663559
 30
0.0
 40
0.25
  0
CIRCLE
  5
4D
330
48
100
AcDbEntity
  8
CSLAYER1
  6
Continuous
 62
     7
100
AcDbCircle
 10
225.0
 20
363.0
 30
0.0
 40
5.0
  0
ENDBLK
  5
4E
330
48
100
AcDbEntity
  8
0
100
AcDbBlockEnd
  0
BLOCK
  5
4F
330
50
100
AcDbEntity
  8
CSLAYER1
100
AcDbBlockBegin
  2
FXDIM0001
 70
     0
 10
0.0
 20
0.0
 30
0.0
  3
FXDIM0001
  1

  0
TEXT
  5
51
330
50
100
AcDbEntity
  8
CSLAYER1
 62
     7
100
AcDbText
 10
197.75
 20
361.0
 30
0.0
 40
4.0
  1
7
 41
0.75
  7
FX_FONT
 72
     5
 11
200.25
 21
361.0
 31
0.0
100
AcDbText
  0
LINE
  5
52
330
50
100
AcDbEntity
  8
CSLAYER1
  6
Continuous
 62
     7
100
AcDbLine
 10
229.424055
 20
310.128683
 30
0.0
 11
201.5
 21
358.669873
 31
0.0
  0
CIRCLE
  5
53
330
50
100
AcDbEntity
  8
CSLAYER1
  6
Continuous
 62
     7
100
AcDbCircle
 10
229.424055
 20
310.128683
 30
0.0
 40
0.5
  0
CIRCLE
  5
54
330
50
100
AcDbEntity
  8
CSLAYER1
  6
Continuous
 62
     7
100
AcDbCircle
 10
229.424055
 20
310.128683
 30
0.0
 40
0.25
  0
CIRCLE
  5
55
330
50
100
AcDbEntity
  8
CSLAYER1
  6
Continuous
 62
     7
100
AcDbCircle
 10
199.0
 20
363.0
 30
0.0
 40
5.0
  0
ENDBLK
  5
56
330
50
100
AcDbEntity
  8
0
100
AcDbBlockEnd
  0
BLOCK
  5
57
330
58
100
AcDbEntity
  8
CSLAYER1
100
AcDbBlockBegin
  2
FXDIM0002
 70
     0
 10
0.0
 20
0.0
 30
0.0
  3
FXDIM0002
  1

  0
TEXT
  5
59
330
58
100
AcDbEntity
  8
CSLAYER1
 62
     7
100
AcDbText
 10
183.840851
 20
360.999969
 30
0.0
 40
4.0
  1
5
 41
0.75
  7
FX_FONT
 72
     5
 11
186.340851
 21
360.999969
 31
0.0
100
AcDbText
  0
LINE
  5
5A
330
58
100
AcDbEntity
  8
CSLAYER1
  6
Continuous
 62
     7
100
AcDbLine
 10
220.440165
 20
301.595089
 30
0.0
 11
187.846812
 21
358.828116
 31
0.0
  0
CIRCLE
  5
5B
330
58
100
AcDbEntity
  8
CSLAYER1
  6
Continuous
 62
     7
100
AcDbCircle
 10
220.440165
 20
301.595089
 30
0.0
 40
0.5
  0
CIRCLE
  5
5C
330
58
100
AcDbEntity
  8
CSLAYER1
  6
Continuous
 62
     7
100
AcDbCircle
 10
220.440165
 20
301.595089
 30
0.0
 40
0.25
  0
CIRCLE
  5
5D
330
58
100
AcDbEntity
  8
CSLAYER1
  6
Continuous
 62
     7
100
AcDbCircle
 10
185.09084
 20
363.0
 30
0.0
 40
5.0
  0
ENDBLK
  5
5E
330
58
100
AcDbEntity
  8
0
100
AcDbBlockEnd
  0
BLOCK
  5
5F
330
60
100
AcDbEntity
  8
CSLAYER1
100
AcDbBlockBegin
  2
FXDIM0003
 70
     0
 10
0.0
 20
0.0
 30
0.0
  3
FXDIM0003
  1

  0
TEXT
  5
61
330
60
100
AcDbEntity
  8
CSLAYER1
 62
     7
100
AcDbText
 10
338.749969
 20
360.999969
 30
0.0
 40
4.0
  1
6
 41
0.75
  7
FX_FONT
 72
     5
 11
341.249969
 21
360.999969
 31
0.0
100
AcDbText
  0
LINE
  5
62
330
60
100
AcDbEntity
  8
CSLAYER1
  6
Continuous
 62
     7
100
AcDbLine
 10
307.5
 20
306.708349
 30
0.0
 11
337.5
 21
358.669873
 31
0.0
  0
CIRCLE
  5
63
330
60
100
AcDbEntity
  8
CSLAYER1
  6
Continuous
 62
     7
100
AcDbCircle
 10
307.5
 20
306.708349
 30
0.0
 40
0.5
  0
CIRCLE
  5
64
330
60
100
AcDbEntity
  8
CSLAYER1
  6
Continuous
 62
     7
100
AcDbCircle
 10
307.5
 20
306.708349
 30
0.0
 40
0.25
  0
CIRCLE
  5
65
330
60
100
AcDbEntity
  8
CSLAYER1
  6
Continuous
 62
     7
100
AcDbCircle
 10
340.0
 20
363.0
 30
0.0
 40
5.0
  0
ENDBLK
  5
66
330
60
100
AcDbEntity
  8
0
100
AcDbBlockEnd
  0
BLOCK
  5
88
330
89
100
AcDbEntity
  8
CSLAYER1
100
AcDbBlockBegin
  2
FXDIM0004
 70
     0
 10
0.0
 20
0.0
 30
0.0
  3
FXDIM0004
  1

  0
TEXT
  5
8A
330
89
100
AcDbEntity
  8
CSLAYER1
 62
     7
100
AcDbText
 10
89.952995
 20
321.0
 30
0.0
 40
4.0
  1
2-4mmネジ用穴
 41
0.708041958042
  7
FX_FONT
 72
     5
 11
116.952995
 21
321.0
 31
0.0
100
AcDbText
  0
LINE
  5
8B
330
89
100
AcDbEntity
  8
CSLAYER1
  6
Continuous
 62
     7
100
AcDbLine
 10
97.875
 20
303.680608
 30
0.0
 11
88.452995
 21
320.0
 31
0.0
  0
LINE
  5
8C
330
89
100
AcDbEntity
  8
CSLAYER1
  6
Continuous
 62
     7
100
AcDbLine
 10
97.875
 20
303.680608
 30
0.0
 11
96.460786
 21
305.094822
 31
0.0
  0
LINE
  5
8D
330
89
100
AcDbEntity
  8
CSLAYER1
  6
Continuous
 62
     7
100
AcDbLine
 10
97.875
 20
303.680608
 30
0.0
 11
97.357362
 21
305.61246
 31
0.0
  0
LINE
  5
8E
330
89
100
AcDbEntity
  8
CSLAYER1
  6
Continuous
 62
     7
100
AcDbLine
 10
88.452995
 20
320.0
 30
0.0
 11
118.452995
 21
320.0
 31
0.0
  0
ENDBLK
  5
8F
330
89
100
AcDbEntity
  8
0
100
AcDbBlockEnd
  0
BLOCK
  5
90
330
91
100
AcDbEntity
  8
CSLAYER1
100
AcDbBlockBegin
  2
FXDIM0005
 70
     0
 10
0.0
 20
0.0
 30
0.0
  3
FXDIM0005
  1

  0
TEXT
  5
92
330
91
100
AcDbEntity
  8
CSLAYER1
 62
     7
100
AcDbText
 10
53.75
 20
361.0
 30
0.0
 40
4.0
  1
9
 41
0.749583564686
  7
FX_FONT
 72
     5
 11
56.25
 21
361.0
 31
0.0
100
AcDbText
  0
LINE
  5
93
330
91
100
AcDbEntity
  8
CSLAYER1
  6
Continuous
 62
     7
100
AcDbLine
 10
89.921014
 20
302.332693
 30
0.0
 11
57.5
 21
358.669873
 31
0.0
  0
CIRCLE
  5
94
330
91
100
AcDbEntity
  8
CSLAYER1
  6
Continuous
 62
     7
100
AcDbCircle
 10
89.921014
 20
302.332693
 30
0.0
 40
0.5
  0
CIRCLE
  5
95
330
91
100
AcDbEntity
  8
CSLAYER1
  6
Continuous
 62
     7
100
AcDbCircle
 10
89.921014
 20
302.332693
 30
0.0
 40
0.25
  0
CIRCLE
  5
96
330
91
100
AcDbEntity
  8
CSLAYER1
  6
Continuous
 62
     7
100
AcDbCircle
 10
55.0
 20
363.0
 30
0.0
 40
5.0
  0
ENDBLK
  5
97
330
91
100
AcDbEntity
  8
0
100
AcDbBlockEnd
  0
BLOCK
  5
98
330
99
100
AcDbEntity
  8
CSLAYER1
100
AcDbBlockBegin
  2
FXDIM0006
 70
     0
 10
0.0
 20
0.0
 30
0.0
  3
FXDIM0006
  1

  0
TEXT
  5
9A
330
99
100
AcDbEntity
  8
CSLAYER1
 62
     7
100
AcDbText
 10
7.5
 20
340.999969
 30
0.0
 40
4.0
  1
10
 41
0.705329153605
  7
FX_FONT
 72
     5
 11
12.5
 21
340.999969
 31
0.0
100
AcDbText
  0
LINE
  5
9B
330
99
100
AcDbEntity
  8
CSLAYER1
  6
Continuous
 62
     7
100
AcDbLine
 10
42.5
 20
286.708349
 30
0.0
 11
12.5
 21
338.669873
 31
0.0
  0
CIRCLE
  5
9C
330
99
100
AcDbEntity
  8
CSLAYER1
  6
Continuous
 62
     7
100
AcDbCircle
 10
42.5
 20
286.708349
 30
0.0
 40
0.5
  0
CIRCLE
  5
9D
330
99
100
AcDbEntity
  8
CSLAYER1
  6
Continuous
 62
     7
100
AcDbCircle
 10
42.5
 20
286.708349
 30
0.0
 40
0.25
  0
CIRCLE
  5
9E
330
99
100
AcDbEntity
  8
CSLAYER1
  6
Continuous
 62
     7
100
AcDbCircle
 10
10.0
 20
343.0
 30
0.0
 40
5.0
  0
ENDBLK
  5
9F
330
99
100
AcDbEntity
  8
0
100
AcDbBlockEnd
  0
BLOCK
  5
186
330
187
100
AcDbEntity
  8
CSLAYER1
100
AcDbBlockBegin
  2
FXDIM0007
 70
     0
 10
0.0
 20
0.0
 30
0.0
  3
FXDIM0007
  1

  0
LINE
  5
188
330
187
100
AcDbEntity
  8
CSLAYER1
  6
Continuous
 62
     7
100
AcDbLine
 10
242.0
 20
194.5
 30
0.0
 11
242.0
 21
163.0
 31
0.0
  0
ENDBLK
  5
189
330
187
100
AcDbEntity
  8
0
100
AcDbBlockEnd
  0
BLOCK
  5
1D0
330
1D1
100
AcDbEntity
  8
CSLAYER1
100
AcDbBlockBegin
  2
FXDIM0008
 70
     0
 10
0.0
 20
0.0
 30
0.0
  3
FXDIM0008
  1

  0
LINE
  5
1D2
330
1D1
100
AcDbEntity
  8
CSLAYER1
  6
Continuous
 62
     7
100
AcDbLine
 10
278.0
 20
276.618696
 30
0.0
 11
278.0
 21
270.0
 31
0.0
  0
ENDBLK
  5
1D3
330
1D1
100
AcDbEntity
  8
0
100
AcDbBlockEnd
  0
BLOCK
  5
1D4
330
1D5
100
AcDbEntity
  8
CSLAYER1
100
AcDbBlockBegin
  2
FXDIM0009
 70
     0
 10
0.0
 20
0.0
 30
0.0
  3
FXDIM0009
  1

  0
LINE
  5
1D6
330
1D5
100
AcDbEntity
  8
CSLAYER1
  6
Continuous
 62
     7
100
AcDbLine
 10
242.0
 20
276.618696
 30
0.0
 11
242.0
 21
270.0
 31
0.0
  0
ENDBLK
  5
1D7
330
1D5
100
AcDbEntity
  8
0
100
AcDbBlockEnd
  0
BLOCK
  5
21A
330
21B
100
AcDbEntity
  8
CSLAYER1
100
AcDbBlockBegin
  2
FXDIM0010
 70
     0
 10
0.0
 20
0.0
 30
0.0
  3
FXDIM0010
  1

  0
TEXT
  5
21C
330
21B
100
AcDbEntity
  8
CSLAYER1
 62
     7
100
AcDbText
 10
486.178802
 20
360.999969
 30
0.0
 40
4.0
  1
2
 41
0.9
  7
FX_FONT
 72
     5
 11
489.178802
 21
360.999969
 31
0.0
100
AcDbText
  0
LINE
  5
21D
330
21B
100
AcDbEntity
  8
CSLAYER1
  6
Continuous
 62
     7
100
AcDbLine
 10
452.178829
 20
301.512196
 30
0.0
 11
485.178829
 21
358.669873
 31
0.0
  0
CIRCLE
  5
21E
330
21B
100
AcDbEntity
  8
CSLAYER1
  6
Continuous
 62
     7
100
AcDbCircle
 10
452.178829
 20
301.512196
 30
0.0
 40
0.5
  0
CIRCLE
  5
21F
330
21B
100
AcDbEntity
  8
CSLAYER1
  6
Continuous
 62
     7
100
AcDbCircle
 10
452.178829
 20
301.512196
 30
0.0
 40
0.25
  0
CIRCLE
  5
220
330
21B
100
AcDbEntity
  8
CSLAYER1
  6
Continuous
 62
     7
100
AcDbCircle
 10
487.678829
 20
363.0
 30
0.0
 40
5.0
  0
ENDBLK
  5
221
330
21B
100
AcDbEntity
  8
0
100
AcDbBlockEnd
  0
BLOCK
  5
222
330
223
100
AcDbEntity
  8
CSLAYER1
100
AcDbBlockBegin
  2
FXDIM0011
 70
     0
 10
0.0
 20
0.0
 30
0.0
  3
FXDIM0011
  1

  0
TEXT
  5
224
330
223
100
AcDbEntity
  8
CSLAYER1
 62
     7
100
AcDbText
 10
413.452911
 20
346.999969
 30
0.0
 40
4.0
  1
2-4mmネジ用穴
 41
0.708041958042
  7
FX_FONT
 72
     5
 11
440.452911
 21
346.999969
 31
0.0
100
AcDbText
  0
LINE
  5
225
330
223
100
AcDbEntity
  8
CSLAYER1
  6
Continuous
 62
     7
100
AcDbLine
 10
422.0
 20
326.0
 30
0.0
 11
410.452995
 21
346.0
 31
0.0
  0
LINE
  5
226
330
223
100
AcDbEntity
  8
CSLAYER1
  6
Continuous
 62
     7
100
AcDbLine
 10
422.0
 20
326.0
 30
0.0
 11
420.585786
 21
327.414214
 31
0.0
  0
LINE
  5
227
330
223
100
AcDbEntity
  8
CSLAYER1
  6
Continuous
 62
     7
100
AcDbLine
 10
422.0
 20
326.0
 30
0.0
 11
421.482362
 21
327.931852
 31
0.0
  0
LINE
  5
228
330
223
100
AcDbEntity
  8
CSLAYER1
  6
Continuous
 62
     7
100
AcDbLine
 10
410.452995
 20
346.0
 30
0.0
 11
443.452995
 21
346.0
 31
0.0
  0
ENDBLK
  5
229
330
223
100
AcDbEntity
  8
0
100
AcDbBlockEnd
  0
BLOCK
  5
285
330
286
100
AcDbEntity
  8
CSLAYER1
100
AcDbBlockBegin
  2
FXDIM0012
 70
     0
 10
0.0
 20
0.0
 30
0.0
  3
FXDIM0012
  1

  0
TEXT
  5
287
330
286
100
AcDbEntity
  8
CSLAYER1
 62
     7
100
AcDbText
 10
365.482025
 20
360.999969
 30
0.0
 40
4.0
  1
3
 41
0.75
  7
FX_FONT
 72
     5
 11
367.982025
 21
360.999969
 31
0.0
100
AcDbText
  0
LINE
  5
288
330
286
100
AcDbEntity
  8
CSLAYER1
  6
Continuous
 62
     7
100
AcDbLine
 10
419.649728
 20
271.343895
 30
0.0
 11
369.232051
 21
358.669873
 31
0.0
  0
CIRCLE
  5
289
330
286
100
AcDbEntity
  8
CSLAYER1
  6
Continuous
 62
     7
100
AcDbCircle
 10
419.649728
 20
271.343895
 30
0.0
 40
0.5
  0
CIRCLE
  5
28A
330
286
100
AcDbEntity
  8
CSLAYER1
  6
Continuous
 62
     7
100
AcDbCircle
 10
419.649728
 20
271.343895
 30
0.0
 40
0.25
  0
CIRCLE
  5
28B
330
286
100
AcDbEntity
  8
CSLAYER1
  6
Continuous
 62
     7
100
AcDbCircle
 10
366.732051
 20
363.0
 30
0.0
 40
5.0
  0
ENDBLK
  5
28C
330
286
100
AcDbEntity
  8
0
100
AcDbBlockEnd
  0
BLOCK
  5
28D
330
28E
100
AcDbEntity
  8
CSLAYER1
100
AcDbBlockBegin
  2
FXDIM0013
 70
     0
 10
0.0
 20
0.0
 30
0.0
  3
FXDIM0013
  1

  0
TEXT
  5
28F
330
28E
100
AcDbEntity
  8
CSLAYER1
 62
     7
100
AcDbText
 10
366.25
 20
162.0
 30
0.0
 40
4.0
  1
4
 41
0.75
  7
FX_FONT
 72
     5
 11
368.75
 21
162.0
 31
0.0
100
AcDbText
  0
LINE
  5
290
330
28E
100
AcDbEntity
  8
CSLAYER1
  6
Continuous
 62
     7
100
AcDbLine
 10
414.0
 20
244.540363
 30
0.0
 11
370.0
 21
168.330127
 31
0.0
  0
CIRCLE
  5
291
330
28E
100
AcDbEntity
  8
CSLAYER1
  6
Continuous
 62
     7
100
AcDbCircle
 10
414.0
 20
244.540363
 30
0.0
 40
0.5
  0
CIRCLE
  5
292
330
28E
100
AcDbEntity
  8
CSLAYER1
  6
Continuous
 62
     7
100
AcDbCircle
 10
414.0
 20
244.540363
 30
0.0
 40
0.25
  0
CIRCLE
  5
293
330
28E
100
AcDbEntity
  8
CSLAYER1
  6
Continuous
 62
     7
100
AcDbCircle
 10
367.5
 20
164.0
 30
0.0
 40
5.0
  0
ENDBLK
  5
294
330
28E
100
AcDbEntity
  8
0
100
AcDbBlockEnd
  0
BLOCK
  5
311
330
312
100
AcDbEntity
  8
CSLAYER1
100
AcDbBlockBegin
  2
FXDIM0014
 70
     0
 10
0.0
 20
0.0
 30
0.0
  3
FXDIM0014
  1

  0
LINE
  5
313
330
312
100
AcDbEntity
  8
CSLAYER1
  6
Continuous
 62
     7
100
AcDbLine
 10
197.0
 20
248.69873
 30
0.0
 11
174.5
 21
287.669873
 31
0.0
  0
CIRCLE
  5
314
330
312
100
AcDbEntity
  8
CSLAYER1
  6
Continuous
 62
     7
100
AcDbCircle
 10
197.0
 20
248.69873
 30
0.0
 40
0.5
  0
CIRCLE
  5
315
330
312
100
AcDbEntity
  8
CSLAYER1
  6
Continuous
 62
     7
100
AcDbCircle
 10
197.0
 20
248.69873
 30
0.0
 40
0.25
  0
CIRCLE
  5
316
330
312
100
AcDbEntity
  8
CSLAYER1
  6
Continuous
 62
     7
100
AcDbCircle
 10
172.0
 20
292.0
 30
0.0
 40
5.0
  0
TEXT
  5
317
330
312
100
AcDbEntity
  8
CSLAYER1
 62
     7
100
AcDbText
 10
170.75
 20
290.0
 30
0.0
 40
4.0
  1
8
 41
0.75
  7
FX_FONT
 72
     5
 11
173.25
 21
290.0
 31
0.0
100
AcDbText
  0
ENDBLK
  5
318
330
312
100
AcDbEntity
  8
0
100
AcDbBlockEnd
  0
BLOCK
  5
324
330
325
100
AcDbEntity
  8
CSLAYER1
100
AcDbBlockBegin
  2
FXDIM0015
 70
     0
 10
0.0
 20
0.0
 30
0.0
  3
FXDIM0015
  1

  0
TEXT
  5
326
330
325
100
AcDbEntity
  8
CSLAYER1
 62
     7
100
AcDbText
 10
-311.709747
 20
403.132751
 30
0.0
 40
4.0
  1
2-4mmネジ用穴
 41
0.708041958042
  7
FX_FONT
 72
     5
 11
-284.709747
 21
403.132751
 31
0.0
100
AcDbText
  0
LINE
  5
327
330
325
100
AcDbEntity
  8
CSLAYER1
  6
Continuous
 62
     7
100
AcDbLine
 10
-303.787748
 20
385.813356
 30
0.0
 11
-313.209753
 21
402.132748
 31
0.0
  0
LINE
  5
328
330
325
100
AcDbEntity
  8
CSLAYER1
  6
Continuous
 62
     7
100
AcDbLine
 10
-303.787748
 20
385.813356
 30
0.0
 11
-305.201961
 21
387.22757
 31
0.0
  0
LINE
  5
329
330
325
100
AcDbEntity
  8
CSLAYER1
  6
Continuous
 62
     7
100
AcDbLine
 10
-303.787748
 20
385.813356
 30
0.0
 11
-304.305386
 21
387.745208
 31
0.0
  0
LINE
  5
32A
330
325
100
AcDbEntity
  8
CSLAYER1
  6
Continuous
 62
     7
100
AcDbLine
 10
-313.209753
 20
402.132748
 30
0.0
 11
-283.209753
 21
402.132748
 31
0.0
  0
ENDBLK
  5
32B
330
325
100
AcDbEntity
  8
0
100
AcDbBlockEnd
  0
BLOCK
  5
399
330
39A
100
AcDbEntity
  8
CSLAYER1
100
AcDbBlockBegin
  2
FXDIM0016
 70
     0
 10
0.0
 20
0.0
 30
0.0
  3
FXDIM0016
  1

  0
LINE
  5
39B
330
39A
100
AcDbEntity
  8
CSLAYER1
  6
Continuous
 62
     7
100
AcDbLine
 10
-289.412748
 20
390.132748
 30
0.0
 11
-229.903408
 21
390.132748
 31
0.0
  0
ENDBLK
  5
39C
330
39A
100
AcDbEntity
  8
0
100
AcDbBlockEnd
  0
BLOCK
  5
3BE
330
3BF
100
AcDbEntity
  8
CSLAYER1
100
AcDbBlockBegin
  2
BLKF0000
 70
     0
 10
0.0
 20
0.0
 30
0.0
  3
BLKF0000
  1

  0
LINE
  5
3C0
330
3BF
100
AcDbEntity
  8
CSLAYER1
  6
Continuous
 62
     7
100
AcDbLine
 10
420.0
 20
318.617353
 30
0.0
 11
422.0
 21
320.617353
 31
0.0
  0
LINE
  5
3C1
330
3BF
100
AcDbEntity
  8
CSLAYER1
  6
Continuous
 62
     7
100
AcDbLine
 10
420.0
 20
321.44578
 30
0.0
 11
422.0
 21
323.44578
 31
0.0
  0
LINE
  5
3C2
330
3BF
100
AcDbEntity
  8
CSLAYER1
  6
Continuous
 62
     7
100
AcDbLine
 10
420.0
 20
324.274207
 30
0.0
 11
422.0
 21
326.274207
 31
0.0
  0
LINE
  5
3C3
330
3BF
100
AcDbEntity
  8
CSLAYER1
  6
Continuous
 62
     7
100
AcDbLine
 10
420.0
 20
327.102634
 30
0.0
 11
422.0
 21
329.102634
 31
0.0
  0
LINE
  5
3C4
330
3BF
100
AcDbEntity
  8
CSLAYER1
  6
Continuous
 62
     7
100
AcDbLine
 10
420.0
 20
329.931061
 30
0.0
 11
422.0
 21
331.931061
 31
0.0
  0
LINE
  5
3C5
330
3BF
100
AcDbEntity
  8
CSLAYER1
  6
Continuous
 62
     7
100
AcDbLine
 10
420.0
 20
332.759488
 30
0.0
 11
422.0
 21
334.759488
 31
0.0
  0
LINE
  5
3C6
330
3BF
100
AcDbEntity
  8
CSLAYER1
  6
Continuous
 62
     7
100
AcDbLine
 10
420.0
 20
335.587915
 30
0.0
 11
420.412085
 21
336.0
 31
0.0
  0
ENDBLK
  5
3C7
330
3BF
100
AcDbEntity
  8
0
100
AcDbBlockEnd
  0
BLOCK
  5
3C8
330
3C9
100
AcDbEntity
  8
CSLAYER1
100
AcDbBlockBegin
  2
BLKF0001
 70
     0
 10
0.0
 20
0.0
 30
0.0
  3
BLKF0001
  1

  0
LINE
  5
3CA
330
3C9
100
AcDbEntity
  8
CSLAYER1
  6
Continuous
 62
     7
100
AcDbLine
 10
422.0
 20
318.652882
 30
0.0
 11
424.0
 21
316.652882
 31
0.0
  0
LINE
  5
3CB
330
3C9
100
AcDbEntity
  8
CSLAYER1
  6
Continuous
 62
     7
100
AcDbLine
 10
422.0
 20
320.774202
 30
0.0
 11
424.0
 21
318.774202
 31
0.0
  0
LINE
  5
3CC
330
3C9
100
AcDbEntity
  8
CSLAYER1
  6
Continuous
 62
     7
100
AcDbLine
 10
422.647761
 20
322.247761
 30
0.0
 11
424.0
 21
320.895522
 31
0.0
  0
LINE
  5
3CD
330
3C9
100
AcDbEntity
  8
CSLAYER1
  6
Continuous
 62
     7
100
AcDbLine
 10
422.0
 20
331.380804
 30
0.0
 11
424.0
 21
329.380804
 31
0.0
  0
LINE
  5
3CE
330
3C9
100
AcDbEntity
  8
CSLAYER1
  6
Continuous
 62
     7
100
AcDbLine
 10
422.0
 20
333.502124
 30
0.0
 11
424.0
 21
331.502124
 31
0.0
  0
LINE
  5
3CF
330
3C9
100
AcDbEntity
  8
CSLAYER1
  6
Continuous
 62
     7
100
AcDbLine
 10
422.0
 20
335.623444
 30
0.0
 11
424.0
 21
333.623444
 31
0.0
  0
LINE
  5
3D0
330
3C9
100
AcDbEntity
  8
CSLAYER1
  6
Continuous
 62
     7
100
AcDbLine
 10
423.744765
 20
336.0
 30
0.0
 11
424.0
 21
335.744765
 31
0.0
  0
ENDBLK
  5
3D1
330
3C9
100
AcDbEntity
  8
0
100
AcDbBlockEnd
  0
BLOCK
  5
3D2
330
3D3
100
AcDbEntity
  8
CSLAYER1
100
AcDbBlockBegin
  2
BLKF0002
 70
     0
 10
0.0
 20
0.0
 30
0.0
  3
BLKF0002
  1

  0
ARC
  5
3D4
330
3D3
100
AcDbEntity
  8
CSLAYER1
  6
Continuous
 62
     7
100
AcDbCircle
 10
420.687096
 20
316.351474
 30
0.0
 40
1.269169
100
AcDbArc
 50
26.853623
 51
122.777266
  0
ARC
  5
3D5
330
3D3
100
AcDbEntity
  8
CSLAYER1
  6
Continuous
 62
     7
100
AcDbCircle
 10
422.92423
 20
317.484161
 30
0.0
 40
1.238369
100
AcDbArc
 50
206.853623
 51
270.287245
  0
ARC
  5
3D6
330
3D3
100
AcDbEntity
  8
CSLAYER1
  6
Continuous
 62
     7
100
AcDbCircle
 10
422.936317
 20
315.073156
 30
0.0
 40
1.172666
100
AcDbArc
 50
24.897317
 51
90.287245
  0
ENDBLK
  5
3D7
330
3D3
100
AcDbEntity
  8
0
100
AcDbBlockEnd
  0
BLOCK
  5
3D8
330
3D9
100
AcDbEntity
  8
CSLAYER1
100
AcDbBlockBegin
  2
BLKF0003
 70
     0
 10
0.0
 20
0.0
 30
0.0
  3
BLKF0003
  1

  0
LINE
  5
3DA
330
3D9
100
AcDbEntity
  8
CSLAYER1
  6
Continuous
 62
     7
100
AcDbLine
 10
486.464466
 20
213.535534
 30
0.0
 11
493.535534
 21
206.464466
 31
0.0
  0
LINE
  5
3DB
330
3D9
100
AcDbEntity
  8
CSLAYER1
  6
Continuous
 62
     7
100
AcDbLine
 10
487.687976
 20
214.433345
 30
0.0
 11
494.433345
 21
207.687976
 31
0.0
  0
LINE
  5
3DC
330
3D9
100
AcDbEntity
  8
CSLAYER1
  6
Continuous
 62
     7
100
AcDbLine
 10
489.292893
 20
214.949747
 30
0.0
 11
494.949747
 21
209.292893
 31
0.0
  0
LINE
  5
3DD
330
3D9
100
AcDbEntity
  8
CSLAYER1
  6
Continuous
 62
     7
100
AcDbLine
 10
491.640877
 20
214.723084
 30
0.0
 11
494.723084
 21
211.640877
 31
0.0
  0
LINE
  5
3DE
330
3D9
100
AcDbEntity
  8
CSLAYER1
  6
Continuous
 62
     7
100
AcDbLine
 10
485.566655
 20
212.312024
 30
0.0
 11
492.312024
 21
205.566655
 31
0.0
  0
LINE
  5
3DF
330
3D9
100
AcDbEntity
  8
CSLAYER1
  6
Continuous
 62
     7
100
AcDbLine
 10
485.050253
 20
210.707107
 30
0.0
 11
490.707107
 21
205.050253
 31
0.0
  0
LINE
  5
3E0
330
3D9
100
AcDbEntity
  8
CSLAYER1
  6
Continuous
 62
     7
100
AcDbLine
 10
485.276916
 20
208.359123
 30
0.0
 11
488.359123
 21
205.276916
 31
0.0
  0
ENDBLK
  5
3E1
330
3D9
100
AcDbEntity
  8
0
100
AcDbBlockEnd
  0
BLOCK
  5
3E2
330
3E3
100
AcDbEntity
  8
CSLAYER1
100
AcDbBlockBegin
  2
BLKF0004
 70
     0
 10
0.0
 20
0.0
 30
0.0
  3
BLKF0004
  1

  0
LINE
  5
3E4
330
3E3
100
AcDbEntity
  8
CSLAYER1
  6
Continuous
 62
     7
100
AcDbLine
 10
479.393398
 20
242.606602
 30
0.0
 11
500.606602
 21
221.393398
 31
0.0
  0
LINE
  5
3E5
330
3E3
100
AcDbEntity
  8
CSLAYER1
  6
Continuous
 62
     7
100
AcDbLine
 10
480.902316
 20
243.926112
 30
0.0
 11
501.926112
 21
222.902316
 31
0.0
  0
LINE
  5
3E6
330
3E3
100
AcDbEntity
  8
CSLAYER1
  6
Continuous
 62
     7
100
AcDbLine
 10
482.605903
 20
245.050951
 30
0.0
 11
503.050951
 21
224.605903
 31
0.0
  0
LINE
  5
3E7
330
3E3
100
AcDbEntity
  8
CSLAYER1
  6
Continuous
 62
     7
100
AcDbLine
 10
484.52153
 20
245.963752
 30
0.0
 11
503.963752
 21
226.52153
 31
0.0
  0
LINE
  5
3E8
330
3E3
100
AcDbEntity
  8
CSLAYER1
  6
Continuous
 62
     7
100
AcDbLine
 10
486.684675
 20
246.629033
 30
0.0
 11
504.629033
 21
228.684675
 31
0.0
  0
LINE
  5
3E9
330
3E3
100
AcDbEntity
  8
CSLAYER1
  6
Continuous
 62
     7
100
AcDbLine
 10
489.165374
 20
246.976762
 30
0.0
 11
504.976762
 21
231.165374
 31
0.0
  0
LINE
  5
3EA
330
3E3
100
AcDbEntity
  8
CSLAYER1
  6
Continuous
 62
     7
100
AcDbLine
 10
492.12132
 20
246.849242
 30
0.0
 11
504.849242
 21
234.12132
 31
0.0
  0
LINE
  5
3EB
330
3E3
100
AcDbEntity
  8
CSLAYER1
  6
Continuous
 62
     7
100
AcDbLine
 10
496.091608
 20
245.707381
 30
0.0
 11
503.707381
 21
238.091608
 31
0.0
  0
LINE
  5
3EC
330
3E3
100
AcDbEntity
  8
CSLAYER1
  6
Continuous
 62
     7
100
AcDbLine
 10
478.073888
 20
241.097684
 30
0.0
 11
499.097684
 21
220.073888
 31
0.0
  0
LINE
  5
3ED
330
3E3
100
AcDbEntity
  8
CSLAYER1
  6
Continuous
 62
     7
100
AcDbLine
 10
476.949049
 20
239.394097
 30
0.0
 11
497.394097
 21
218.949049
 31
0.0
  0
LINE
  5
3EE
330
3E3
100
AcDbEntity
  8
CSLAYER1
  6
Continuous
 62
     7
100
AcDbLine
 10
476.036248
 20
237.47847
 30
0.0
 11
495.47847
 21
218.036248
 31
0.0
  0
LINE
  5
3EF
330
3E3
100
AcDbEntity
  8
CSLAYER1
  6
Continuous
 62
     7
100
AcDbLine
 10
475.370967
 20
235.315325
 30
0.0
 11
493.315325
 21
217.370967
 31
0.0
  0
LINE
  5
3F0
330
3E3
100
AcDbEntity
  8
CSLAYER1
  6
Continuous
 62
     7
100
AcDbLine
 10
475.023238
 20
232.834626
 30
0.0
 11
490.834626
 21
217.023238
 31
0.0
  0
LINE
  5
3F1
330
3E3
100
AcDbEntity
  8
CSLAYER1
  6
Continuous
 62
     7
100
AcDbLine
 10
475.150758
 20
229.87868
 30
0.0
 11
487.87868
 21
217.150758
 31
0.0
  0
LINE
  5
3F2
330
3E3
100
AcDbEntity
  8
CSLAYER1
  6
Continuous
 62
     7
100
AcDbLine
 10
476.292619
 20
225.908392
 30
0.0
 11
483.908392
 21
218.292619
 31
0.0
  0
ENDBLK
  5
3F3
330
3E3
100
AcDbEntity
  8
0
100
AcDbBlockEnd
  0
BLOCK
  5
3F4
330
3F5
100
AcDbEntity
  8
CSLAYER1
100
AcDbBlockBegin
  2
BLKF0005
 70
     0
 10
0.0
 20
0.0
 30
0.0
  3
BLKF0005
  1

  0
LINE
  5
3F6
330
3F5
100
AcDbEntity
  8
CSLAYER1
  6
Continuous
 62
     7
100
AcDbLine
 10
486.464466
 20
257.535534
 30
0.0
 11
493.535534
 21
250.464466
 31
0.0
  0
LINE
  5
3F7
330
3F5
100
AcDbEntity
  8
CSLAYER1
  6
Continuous
 62
     7
100
AcDbLine
 10
487.687976
 20
258.433345
 30
0.0
 11
494.433345
 21
251.687976
 31
0.0
  0
LINE
  5
3F8
330
3F5
100
AcDbEntity
  8
CSLAYER1
  6
Continuous
 62
     7
100
AcDbLine
 10
489.292893
 20
258.949747
 30
0.0
 11
494.949747
 21
253.292893
 31
0.0
  0
LINE
  5
3F9
330
3F5
100
AcDbEntity
  8
CSLAYER1
  6
Continuous
 62
     7
100
AcDbLine
 10
491.640877
 20
258.723084
 30
0.0
 11
494.723084
 21
255.640877
 31
0.0
  0
LINE
  5
3FA
330
3F5
100
AcDbEntity
  8
CSLAYER1
  6
Continuous
 62
     7
100
AcDbLine
 10
485.566655
 20
256.312024
 30
0.0
 11
492.312024
 21
249.566655
 31
0.0
  0
LINE
  5
3FB
330
3F5
100
AcDbEntity
  8
CSLAYER1
  6
Continuous
 62
     7
100
AcDbLine
 10
485.050253
 20
254.707107
 30
0.0
 11
490.707107
 21
249.050253
 31
0.0
  0
LINE
  5
3FC
330
3F5
100
AcDbEntity
  8
CSLAYER1
  6
Continuous
 62
     7
100
AcDbLine
 10
485.276916
 20
252.359123
 30
0.0
 11
488.359123
 21
249.276916
 31
0.0
  0
ENDBLK
  5
3FD
330
3F5
100
AcDbEntity
  8
0
100
AcDbBlockEnd
  0
BLOCK
  5
3FE
330
3FF
100
AcDbEntity
  8
CSLAYER1
100
AcDbBlockBegin
  2
BLKF0006
 70
     0
 10
0.0
 20
0.0
 30
0.0
  3
BLKF0006
  1

  0
LINE
  5
400
330
3FF
100
AcDbEntity
  8
CSLAYER1
  6
Continuous
 62
     7
100
AcDbLine
 10
478.686292
 20
308.313708
 30
0.0
 11
501.313708
 21
285.686292
 31
0.0
  0
LINE
  5
401
330
3FF
100
AcDbEntity
  8
CSLAYER1
  6
Continuous
 62
     7
100
AcDbLine
 10
480.189241
 20
309.639186
 30
0.0
 11
502.639186
 21
287.189241
 31
0.0
  0
LINE
  5
402
330
3FF
100
AcDbEntity
  8
CSLAYER1
  6
Continuous
 62
     7
100
AcDbLine
 10
481.873976
 20
310.782878
 30
0.0
 11
503.782878
 21
288.873976
 31
0.0
  0
LINE
  5
403
330
3FF
100
AcDbEntity
  8
CSLAYER1
  6
Continuous
 62
     7
100
AcDbLine
 10
483.754552
 20
311.730729
 30
0.0
 11
504.730729
 21
290.754552
 31
0.0
  0
LINE
  5
404
330
3FF
100
AcDbEntity
  8
CSLAYER1
  6
Continuous
 62
     7
100
AcDbLine
 10
485.858895
 20
312.454813
 30
0.0
 11
505.454813
 21
292.858895
 31
0.0
  0
LINE
  5
405
330
3FF
100
AcDbEntity
  8
CSLAYER1
  6
Continuous
 62
     7
100
AcDbLine
 10
488.239307
 20
312.902829
 30
0.0
 11
505.902829
 21
295.239307
 31
0.0
  0
LINE
  5
406
330
3FF
100
AcDbEntity
  8
CSLAYER1
  6
Continuous
 62
     7
100
AcDbLine
 10
491.001967
 20
312.968596
 30
0.0
 11
505.968596
 21
298.001967
 31
0.0
  0
LINE
  5
407
330
3FF
100
AcDbEntity
  8
CSLAYER1
  6
Continuous
 62
     7
100
AcDbLine
 10
494.422269
 20
312.376721
 30
0.0
 11
505.376721
 21
301.422269
 31
0.0
  0
LINE
  5
408
330
3FF
100
AcDbEntity
  8
CSLAYER1
  6
Continuous
 62
     7
100
AcDbLine
 10
477.360814
 20
306.810759
 30
0.0
 11
499.810759
 21
284.360814
 31
0.0
  0
LINE
  5
409
330
3FF
100
AcDbEntity
  8
CSLAYER1
  6
Continuous
 62
     7
100
AcDbLine
 10
476.217122
 20
305.126024
 30
0.0
 11
498.126024
 21
283.217122
 31
0.0
  0
LINE
  5
40A
330
3FF
100
AcDbEntity
  8
CSLAYER1
  6
Continuous
 62
     7
100
AcDbLine
 10
475.269271
 20
303.245448
 30
0.0
 11
496.245448
 21
282.269271
 31
0.0
  0
LINE
  5
40B
330
3FF
100
AcDbEntity
  8
CSLAYER1
  6
Continuous
 62
     7
100
AcDbLine
 10
474.545187
 20
301.141105
 30
0.0
 11
494.141105
 21
281.545187
 31
0.0
  0
LINE
  5
40C
330
3FF
100
AcDbEntity
  8
CSLAYER1
  6
Continuous
 62
     7
100
AcDbLine
 10
474.097171
 20
298.760693
 30
0.0
 11
491.760693
 21
281.097171
 31
0.0
  0
LINE
  5
40D
330
3FF
100
AcDbEntity
  8
CSLAYER1
  6
Continuous
 62
     7
100
AcDbLine
 10
474.031404
 20
295.998033
 30
0.0
 11
488.998033
 21
281.031404
 31
0.0
  0
LINE
  5
40E
330
3FF
100
AcDbEntity
  8
CSLAYER1
  6
Continuous
 62
     7
100
AcDbLine
 10
474.623279
 20
292.577731
 30
0.0
 11
485.577731
 21
281.623279
 31
0.0
  0
ENDBLK
  5
40F
330
3FF
100
AcDbEntity
  8
0
100
AcDbBlockEnd
  0
BLOCK
  5
992
330
96C
100
AcDbEntity
  8
0
100
AcDbBlockBegin
  2
AD400C8
 70
     0
 10
0.0
 20
0.0
 30
0.0
  3
AD400C8
  1

  0
TEXT
  5
991
330
96C
100
AcDbEntity
  8
CSLAYER1
 62
     7
100
AcDbText
 10
-0.5
 20
0.0
 30
0.0
 40
4.0
  1
H
 41
0.75
  7
FX_FONT
 72
     5
 11
2.0
 21
0.0
 31
0.0
100
AcDbText
  0
ENDBLK
  5
993
330
96C
100
AcDbEntity
  8
0
100
AcDbBlockEnd
  0
BLOCK
  5
9A8
330
9A7
100
AcDbEntity
  8
0
100
AcDbBlockBegin
  2
_OPEN30
 70
     0
 10
0.0
 20
0.0
 30
0.0
  3
_OPEN30
  1

  0
LINE
  5
9AA
330
9A7
100
AcDbEntity
  8
0
  6
ByBlock
 62
     0
370
    -2
100
AcDbLine
 10
-1.0
 20
0.267949
 30
0.0
 11
0.0
 21
0.0
 31
0.0
  0
LINE
  5
9AB
330
9A7
100
AcDbEntity
  8
0
  6
ByBlock
 62
     0
370
    -2
100
AcDbLine
 10
0.0
 20
0.0
 30
0.0
 11
-1.0
 21
-0.267949
 31
0.0
  0
LINE
  5
9AC
330
9A7
100
AcDbEntity
  8
0
  6
ByBlock
 62
     0
370
    -2
100
AcDbLine
 10
0.0
 20
0.0
 30
0.0
 11
-1.0
 21
0.0
 31
0.0
  0
ENDBLK
  5
9A9
330
9A7
100
AcDbEntity
  8
0
100
AcDbBlockEnd
  0
BLOCK
  5
9DD
330
9B7
100
AcDbEntity
  8
0
100
AcDbBlockBegin
  2
AD40188
 70
     0
 10
0.0
 20
0.0
 30
0.0
  3
AD40188
  1

  0
TEXT
  5
9DC
330
9B7
100
AcDbEntity
  8
CSLAYER1
 62
     7
100
AcDbText
 10
-0.869565217391
 20
0.0
 30
0.0
 40
4.0
  1
17.5
 41
0.652173913043
  7
FX_FONT
 72
     5
 11
9.130434782609
 21
0.0
 31
0.0
100
AcDbText
  0
ENDBLK
  5
9DE
330
9B7
100
AcDbEntity
  8
0
100
AcDbBlockEnd
  0
BLOCK
  5
A5C
330
9EC
100
AcDbEntity
  8
0
100
AcDbBlockBegin
  2
AD400F8
 70
     0
 10
0.0
 20
0.0
 30
0.0
  3
AD400F8
  1

  0
LINE
  5
A14
330
9EC
100
AcDbEntity
  8
CSLAYER10
  6
Continuous
 62
     3
100
AcDbLine
 10
0.0
 20
0.0
 30
0.0
 11
87.557071326858
 21
0.0
 31
0.0
  0
LINE
  5
A15
330
9EC
100
AcDbEntity
  8
CSLAYER10
  6
Continuous
 62
     3
100
AcDbLine
 10
191.587094917085
 20
32.674119185281
 30
0.0
 11
236.587094917085
 21
32.674119185281
 31
0.0
  0
LINE
  5
A16
330
9EC
100
AcDbEntity
  8
CSLAYER10
  6
Continuous
 62
     3
100
AcDbLine
 10
236.587094917085
 20
40.674119185281
 30
0.0
 11
191.587094917085
 21
40.674119185281
 31
0.0
  0
LINE
  5
A17
330
9EC
100
AcDbEntity
  8
CSLAYER10
  6
Continuous
 62
     3
100
AcDbLine
 10
191.587094917085
 20
8.674119185281
 30
0.0
 11
236.587094917085
 21
8.674119185281
 31
0.0
  0
LINE
  5
A18
330
9EC
100
AcDbEntity
  8
CSLAYER10
  6
Continuous
 62
     3
100
AcDbLine
 10
0.03556
 20
32.0
 30
0.0
 11
87.557071326858
 21
32.0
 31
0.0
  0
LINE
  5
A19
330
9EC
100
AcDbEntity
  8
CSLAYER10
  6
Continuous
 62
     3
100
AcDbLine
 10
25.03556
 20
0.0
 30
0.0
 11
25.03556
 21
40.0
 31
0.0
  0
LINE
  5
A1A
330
9EC
100
AcDbEntity
  8
CSLAYER10
  6
Continuous
 62
     3
100
AcDbLine
 10
211.587094917085
 20
40.674119185281
 30
0.0
 11
211.587094917085
 21
8.674119185281
 31
0.0
  0
TEXT
  5
A1B
330
9EC
100
AcDbEntity
  8
CSLAYER10
  6
Continuous
 62
     7
100
AcDbText
 10
32.210685476965
 20
33.471132672362
 30
0.0
 40
4.0
  1
高さ(H)
 41
0.89552238806
  7
FX_FONT
 72
     5
 11
50.210685476965
 21
33.471132672362
 31
0.0
100
AcDbText
  0
TEXT
  5
A1C
330
9EC
100
AcDbEntity
  8
CSLAYER10
  6
Continuous
 62
     7
100
AcDbText
 10
62.847607331655
 20
33.946842760778
 30
0.0
 40
4.0
  1
直径(D)
 41
0.89552238806
  7
FX_FONT
 72
     5
 11
80.847607331655
 21
33.946842760778
 31
0.0
100
AcDbText
  0
TEXT
  5
A1D
330
9EC
100
AcDbEntity
  8
CSLAYER10
  6
Continuous
 62
     7
100
AcDbText
 10
35.132227633649
 20
25.162432896848
 30
0.0
 40
4.0
  1
21.0
 41
0.662739322533
  7
FX_FONT
 72
     5
 11
45.132227633649
 21
25.162432896848
 31
0.0
100
AcDbText
  0
TEXT
  5
A1E
330
9EC
100
AcDbEntity
  8
CSLAYER10
  6
Continuous
 62
     7
100
AcDbText
 10
35.139063633649
 20
17.462519896848
 30
0.0
 40
4.0
  1
18.5
 41
0.652173913043
  7
FX_FONT
 72
     5
 11
45.139063633649
 21
17.462519896848
 31
0.0
100
AcDbText
  0
TEXT
  5
A1F
330
9EC
100
AcDbEntity
  8
CSLAYER10
  6
Continuous
 62
     7
100
AcDbText
 10
35.132227633649
 20
9.462100896848
 30
0.0
 40
4.0
  1
16.0
 41
0.661521499449
  7
FX_FONT
 72
     5
 11
45.132227633649
 21
9.462100896848
 31
0.0
100
AcDbText
  0
TEXT
  5
A20
330
9EC
100
AcDbEntity
  8
CSLAYER10
  6
Continuous
 62
     7
100
AcDbText
 10
34.729639633649
 20
1.410647896848
 30
0.0
 40
4.0
  1
13.5
 41
0.652173913043
  7
FX_FONT
 72
     5
 11
44.729639633649
 21
1.410647896848
 31
0.0
100
AcDbText
  0
TEXT
  5
A21
330
9EC
100
AcDbEntity
  8
CSLAYER10
  6
Continuous
 62
     7
100
AcDbText
 10
64.986953488339
 20
25.828648985264
 30
0.0
 40
4.0
  1
%%C48.5
 41
0.67880649429
  7
FX_FONT
 72
     5
 11
78.110545711275
 21
25.828648985264
 31
0.0
100
AcDbText
  0
TEXT
  5
A22
330
9EC
100
AcDbEntity
  8
CSLAYER10
  6
Continuous
 62
     7
100
AcDbText
 10
64.986953488339
 20
17.938229985264
 30
0.0
 40
4.0
  1
%%C47.5
 41
0.67880649429
  7
FX_FONT
 72
     5
 11
78.110545711275
 21
17.938229985264
 31
0.0
100
AcDbText
  0
TEXT
  5
A23
330
9EC
100
AcDbEntity
  8
CSLAYER10
  6
Continuous
 62
     7
100
AcDbText
 10
65.092818488339
 20
9.535237985264
 30
0.0
 40
4.0
  1
%%C46.5
 41
0.655589346114
  7
FX_FONT
 72
     5
 11
77.785756661705
 21
9.535237985264
 31
0.0
100
AcDbText
  0
TEXT
  5
A24
330
9EC
100
AcDbEntity
  8
CSLAYER10
  6
Continuous
 62
     7
100
AcDbText
 10
64.986953488339
 20
2.157376985264
 30
0.0
 40
4.0
  1
%%C45.5
 41
0.661057265769
  7
FX_FONT
 72
     5
 11
77.785756661705
 21
2.157376985264
 31
0.0
100
AcDbText
  0
TEXT
  5
A25
330
9EC
100
AcDbEntity
  8
CSLAYER10
  6
Continuous
 62
     7
100
AcDbText
 10
193.583339917085
 20
34.596446185281
 30
0.0
 40
4.429919
  1
バックセットA
 41
0.489384836771
  7
FX_FONT
 72
     5
 11
210.999085917085
 21
34.596446185281
 31
0.0
100
AcDbText
  0
TEXT
  5
A26
330
9EC
100
AcDbEntity
  8
CSLAYER10
  6
Continuous
 62
     7
100
AcDbText
 10
217.160593917085
 20
35.028793185281
 30
0.0
 40
3.739113
  1
錠奥行B
 41
0.834060361334
  7
FX_FONT
 72
     5
 11
230.986590917085
 21
35.028793185281
 31
0.0
100
AcDbText
  0
TEXT
  5
A27
330
9EC
100
AcDbEntity
  8
CSLAYER10
  6
Continuous
 62
     7
100
AcDbText
 10
198.421675917085
 20
26.333225185281
 30
0.0
 40
4.0
  1
70
 41
0.846394984326
  7
FX_FONT
 72
     5
 11
204.421675917085
 21
26.333225185281
 31
0.0
100
AcDbText
  0
TEXT
  5
A28
330
9EC
100
AcDbEntity
  8
CSLAYER10
  6
Continuous
 62
     7
100
AcDbText
 10
198.421675917085
 20
18.507217185281
 30
0.0
 40
4.0
  1
90
 41
0.846173935753
  7
FX_FONT
 72
     5
 11
204.421675917085
 21
18.507217185281
 31
0.0
100
AcDbText
  0
TEXT
  5
A29
330
9EC
100
AcDbEntity
  8
CSLAYER10
  6
Continuous
 62
     7
100
AcDbText
 10
196.921675917085
 20
10.681198185281
 30
0.0
 40
4.0
  1
100
 41
0.811216825238
  7
FX_FONT
 72
     5
 11
205.921675917085
 21
10.681198185281
 31
0.0
100
AcDbText
  0
TEXT
  5
A2A
330
9EC
100
AcDbEntity
  8
CSLAYER10
  6
Continuous
 62
     7
100
AcDbText
 10
220.160597917085
 20
26.333225185281
 30
0.0
 40
4.0
  1
94
 41
0.817975258773
  7
FX_FONT
 72
     5
 11
226.160597917085
 21
26.333225185281
 31
0.0
100
AcDbText
  0
TEXT
  5
A2B
330
9EC
100
AcDbEntity
  8
CSLAYER10
  6
Continuous
 62
     7
100
AcDbText
 10
218.660597917085
 20
18.507217185281
 30
0.0
 40
4.0
  1
114
 41
0.794117647059
  7
FX_FONT
 72
     5
 11
227.660597917085
 21
18.507217185281
 31
0.0
100
AcDbText
  0
TEXT
  5
A2C
330
9EC
100
AcDbEntity
  8
CSLAYER10
  6
Continuous
 62
     7
100
AcDbText
 10
218.660597917085
 20
10.681198185281
 30
0.0
 40
4.0
  1
124
 41
0.794117647059
  7
FX_FONT
 72
     5
 11
227.660597917085
 21
10.681198185281
 31
0.0
100
AcDbText
  0
LINE
  5
A2D
330
9EC
100
AcDbEntity
  8
CSLAYER10
  6
Continuous
 62
     7
100
AcDbLine
 10
0.03556
 20
24.0
 30
0.0
 11
87.557071326858
 21
24.0
 31
0.0
  0
LINE
  5
A2E
330
9EC
100
AcDbEntity
  8
CSLAYER10
  6
Continuous
 62
     7
100
AcDbLine
 10
87.557071326858
 20
16.0
 30
0.0
 11
0.03556
 21
16.0
 31
0.0
  0
LINE
  5
A2F
330
9EC
100
AcDbEntity
  8
CSLAYER10
  6
Continuous
 62
     7
100
AcDbLine
 10
0.03556
 20
8.0
 30
0.0
 11
87.557071326858
 21
8.0
 31
0.0
  0
LINE
  5
A30
330
9EC
100
AcDbEntity
  8
CSLAYER10
  6
Continuous
 62
     7
100
AcDbLine
 10
191.587094917085
 20
24.674119185281
 30
0.0
 11
236.587094917085
 21
24.674119185281
 31
0.0
  0
LINE
  5
A31
330
9EC
100
AcDbEntity
  8
CSLAYER10
  6
Continuous
 62
     7
100
AcDbLine
 10
236.587094917085
 20
16.674119185281
 30
0.0
 11
191.587094917085
 21
16.674119185281
 31
0.0
  0
TEXT
  5
A32
330
9EC
100
AcDbEntity
  8
CSLAYER10
  6
Continuous
 62
     7
100
AcDbText
 10
6.469615
 20
41.026002368393
 30
0.0
 40
5.0
  1
扉厚
 41
1.125
  7
FX_FONT
 72
     5
 11
18.469615
 21
41.026002368393
 31
0.0
100
AcDbText
  0
TEXT
  5
A33
330
9EC
100
AcDbEntity
  8
CSLAYER10
  6
Continuous
 62
     7
100
AcDbText
 10
2.035563
 20
25.999998
 30
0.0
 40
4.0
  1
35 ~ 38未満
 41
0.629475437136
  7
FX_FONT
 72
     5
 11
23.035563
 21
25.999998
 31
0.0
100
AcDbText
  0
TEXT
  5
A34
330
9EC
100
AcDbEntity
  8
CSLAYER10
  6
Continuous
 62
     7
100
AcDbText
 10
2.035563
 20
18.000006
 30
0.0
 40
4.0
  1
38 ~ 43未満
 41
0.63
  7
FX_FONT
 72
     5
 11
23.035563
 21
18.000006
 31
0.0
100
AcDbText
  0
TEXT
  5
A35
330
9EC
100
AcDbEntity
  8
CSLAYER10
  6
Continuous
 62
     7
100
AcDbText
 10
2.035563
 20
10.000006
 30
0.0
 40
4.0
  1
43 ~ 48未満
 41
0.63
  7
FX_FONT
 72
     5
 11
23.035563
 21
10.000006
 31
0.0
100
AcDbText
  0
TEXT
  5
A36
330
9EC
100
AcDbEntity
  8
CSLAYER10
  6
Continuous
 62
     7
100
AcDbText
 10
2.940514601396
 20
1.792411311929
 30
0.0
 40
4.0
  1
48 ~ 50
 41
0.738312618664
  7
FX_FONT
 72
     5
 11
20.598491397776
 21
1.792411311929
 31
0.0
100
AcDbText
  0
LINE
  5
A37
330
9EC
100
AcDbEntity
  8
CSLAYER10
  6
Continuous
 62
     3
100
AcDbLine
 10
25.03556
 20
8.0
 30
0.0
 11
25.03556
 21
56.0
 31
0.0
  0
LINE
  5
A38
330
9EC
100
AcDbEntity
  8
CSLAYER10
  6
Continuous
 62
     3
100
AcDbLine
 10
25.03556
 20
48.0
 30
0.0
 11
87.557071326858
 21
48.0
 31
0.0
  0
LINE
  5
A39
330
9EC
100
AcDbEntity
  8
CSLAYER10
  6
Continuous
 62
     3
100
AcDbLine
 10
0.03556
 20
56.0
 30
0.0
 11
87.557071326858
 21
56.0
 31
0.0
  0
LINE
  5
A3A
330
9EC
100
AcDbEntity
  8
CSLAYER10
  6
Continuous
 62
     3
100
AcDbLine
 10
25.03556
 20
40.0
 30
0.0
 11
87.557071326858
 21
40.0
 31
0.0
  0
LINE
  5
A3B
330
9EC
100
AcDbEntity
  8
CSLAYER10
  6
Continuous
 62
     3
100
AcDbLine
 10
56.099017873703
 20
40.0
 30
0.0
 11
56.099017873703
 21
0.0
 31
0.0
  0
TEXT
  5
A3C
330
9EC
100
AcDbEntity
  8
CSLAYER10
  6
Continuous
100
AcDbText
 10
31.288591054036
 20
50.133991014118
 30
0.0
 40
4.0
  1
Xキーシリンダー、ピンシリンダー、サムターン
 41
0.5
  7
FX_FONT
100
AcDbText
  0
TEXT
  5
A3D
330
9EC
100
AcDbEntity
  8
CSLAYER10
  6
Continuous
100
AcDbText
 10
47.298618789554
 20
41.913961584618
 30
0.0
 40
4.0
  1
Ａ＝47
  7
FX_FONT
100
AcDbText
  0
LINE
  5
A3E
330
9EC
100
AcDbEntity
  8
CSLAYER10
  6
Continuous
 62
     3
100
AcDbLine
 10
95.906507873865
 20
0.0
 30
0.0
 11
183.463579200723
 21
0.0
 31
0.0
  0
LINE
  5
A3F
330
9EC
100
AcDbEntity
  8
CSLAYER10
  6
Continuous
 62
     3
100
AcDbLine
 10
95.942067873865
 20
32.0
 30
0.0
 11
183.463579200723
 21
32.0
 31
0.0
  0
LINE
  5
A40
330
9EC
100
AcDbEntity
  8
CSLAYER10
  6
Continuous
 62
     3
100
AcDbLine
 10
120.942067873865
 20
0.0
 30
0.0
 11
120.942067873865
 21
40.0
 31
0.0
  0
TEXT
  5
A41
330
9EC
100
AcDbEntity
  8
CSLAYER10
  6
Continuous
 62
     7
100
AcDbText
 10
128.11719335083
 20
33.471132672362
 30
0.0
 40
4.0
  1
高さ(H)
 41
0.89552238806
  7
FX_FONT
 72
     5
 11
146.11719335083
 21
33.471132672362
 31
0.0
100
AcDbText
  0
TEXT
  5
A42
330
9EC
100
AcDbEntity
  8
CSLAYER10
  6
Continuous
 62
     7
100
AcDbText
 10
158.75411520552
 20
33.946842760778
 30
0.0
 40
4.0
  1
直径(D)
 41
0.89552238806
  7
FX_FONT
 72
     5
 11
176.75411520552
 21
33.946842760778
 31
0.0
100
AcDbText
  0
TEXT
  5
A43
330
9EC
100
AcDbEntity
  8
CSLAYER10
  6
Continuous
 62
     7
100
AcDbText
 10
131.038735507514
 20
25.162432896848
 30
0.0
 40
4.0
  1
22.5
 41
0.652173913043
  7
FX_FONT
 72
     5
 11
141.038735507514
 21
25.162432896848
 31
0.0
100
AcDbText
  0
TEXT
  5
A44
330
9EC
100
AcDbEntity
  8
CSLAYER10
  6
Continuous
 62
     7
100
AcDbText
 10
131.045571507514
 20
17.462519896848
 30
0.0
 40
4.0
  1
21.5
 41
0.652173913043
  7
FX_FONT
 72
     5
 11
141.045571507514
 21
17.462519896848
 31
0.0
100
AcDbText
  0
TEXT
  5
A45
330
9EC
100
AcDbEntity
  8
CSLAYER10
  6
Continuous
 62
     7
100
AcDbText
 10
131.038735507514
 20
9.462100896848
 30
0.0
 40
4.0
  1
18.5
 41
0.652173913043
  7
FX_FONT
 72
     5
 11
141.038735507514
 21
9.462100896848
 31
0.0
100
AcDbText
  0
TEXT
  5
A46
330
9EC
100
AcDbEntity
  8
CSLAYER10
  6
Continuous
 62
     7
100
AcDbText
 10
130.636147507514
 20
1.410647896848
 30
0.0
 40
4.0
  1
16.0
 41
0.661521499449
  7
FX_FONT
 72
     5
 11
140.636147507514
 21
1.410647896848
 31
0.0
100
AcDbText
  0
TEXT
  5
A47
330
9EC
100
AcDbEntity
  8
CSLAYER10
  6
Continuous
 62
     7
100
AcDbText
 10
160.893461362204
 20
25.828648985264
 30
0.0
 40
4.0
  1
%%C49.0
 41
0.689599186677
  7
FX_FONT
 72
     5
 11
174.058420650075
 21
25.828648985264
 31
0.0
100
AcDbText
  0
TEXT
  5
A48
330
9EC
100
AcDbEntity
  8
CSLAYER10
  6
Continuous
 62
     7
100
AcDbText
 10
160.893461362204
 20
17.938229985264
 30
0.0
 40
4.0
  1
%%C48.5
 41
0.69668083316
  7
FX_FONT
 72
     5
 11
174.362624136631
 21
17.938229985264
 31
0.0
100
AcDbText
  0
TEXT
  5
A49
330
9EC
100
AcDbEntity
  8
CSLAYER10
  6
Continuous
 62
     7
100
AcDbText
 10
160.999326362204
 20
9.535237985264
 30
0.0
 40
4.0
  1
%%C47.5
 41
0.694241319729
  7
FX_FONT
 72
     5
 11
174.421325210293
 21
9.535237985264
 31
0.0
100
AcDbText
  0
TEXT
  5
A4A
330
9EC
100
AcDbEntity
  8
CSLAYER10
  6
Continuous
 62
     7
100
AcDbText
 10
160.893461362204
 20
2.157376985264
 30
0.0
 40
4.0
  1
%%C46.5
 41
0.716606883837
  7
FX_FONT
 72
     5
 11
174.767766863168
 21
2.157376985264
 31
0.0
100
AcDbText
  0
LINE
  5
A4B
330
9EC
100
AcDbEntity
  8
CSLAYER10
  6
Continuous
 62
     7
100
AcDbLine
 10
95.942067873865
 20
24.0
 30
0.0
 11
183.463579200723
 21
24.0
 31
0.0
  0
LINE
  5
A4C
330
9EC
100
AcDbEntity
  8
CSLAYER10
  6
Continuous
 62
     7
100
AcDbLine
 10
183.463579200723
 20
16.0
 30
0.0
 11
95.942067873865
 21
16.0
 31
0.0
  0
LINE
  5
A4D
330
9EC
100
AcDbEntity
  8
CSLAYER10
  6
Continuous
 62
     7
100
AcDbLine
 10
95.942067873865
 20
8.0
 30
0.0
 11
183.463579200723
 21
8.0
 31
0.0
  0
TEXT
  5
A4E
330
9EC
100
AcDbEntity
  8
CSLAYER10
  6
Continuous
 62
     7
100
AcDbText
 10
102.376122873865
 20
41.026002368393
 30
0.0
 40
5.0
  1
扉厚
 41
1.125
  7
FX_FONT
 72
     5
 11
114.376122873865
 21
41.026002368393
 31
0.0
100
AcDbText
  0
LINE
  5
A4F
330
9EC
100
AcDbEntity
  8
CSLAYER10
  6
Continuous
 62
     3
100
AcDbLine
 10
120.942067873865
 20
8.0
 30
0.0
 11
120.942067873865
 21
56.0
 31
0.0
  0
LINE
  5
A50
330
9EC
100
AcDbEntity
  8
CSLAYER10
  6
Continuous
 62
     3
100
AcDbLine
 10
120.942067873865
 20
48.0
 30
0.0
 11
183.463579200723
 21
48.0
 31
0.0
  0
LINE
  5
A51
330
9EC
100
AcDbEntity
  8
CSLAYER10
  6
Continuous
 62
     3
100
AcDbLine
 10
95.942067873865
 20
56.0
 30
0.0
 11
183.463579200723
 21
56.0
 31
0.0
  0
LINE
  5
A52
330
9EC
100
AcDbEntity
  8
CSLAYER10
  6
Continuous
 62
     3
100
AcDbLine
 10
120.942067873865
 20
40.0
 30
0.0
 11
183.463579200723
 21
40.0
 31
0.0
  0
LINE
  5
A53
330
9EC
100
AcDbEntity
  8
CSLAYER10
  6
Continuous
 62
     3
100
AcDbLine
 10
152.005525747568
 20
40.0
 30
0.0
 11
152.005525747568
 21
0.0
 31
0.0
  0
TEXT
  5
A54
330
9EC
100
AcDbEntity
  8
CSLAYER10
  6
Continuous
100
AcDbText
 10
143.205126663418
 20
41.913961584618
 30
0.0
 40
4.0
  1
Ａ＝49.5
  7
FX_FONT
100
AcDbText
  0
TEXT
  5
A55
330
9EC
100
AcDbEntity
  8
CSLAYER10
  6
Continuous
100
AcDbText
 10
104.892033751989
 20
25.498990307947
 30
0.0
 40
4.0
  1
36
100
AcDbText
  0
TEXT
  5
A56
330
9EC
100
AcDbEntity
  8
CSLAYER10
  6
Continuous
100
AcDbText
 10
104.517286175002
 20
17.89545736548
 30
0.0
 40
4.0
  1
40
100
AcDbText
  0
TEXT
  5
A57
330
9EC
100
AcDbEntity
  8
CSLAYER10
  6
Continuous
100
AcDbText
 10
104.704659963496
 20
9.917176846026
 30
0.0
 40
4.0
  1
45
100
AcDbText
  0
TEXT
  5
A58
330
9EC
100
AcDbEntity
  8
CSLAYER10
  6
Continuous
100
AcDbText
 10
104.892033751989
 20
1.938896326573
 30
0.0
 40
4.0
  1
50
100
AcDbText
  0
TEXT
  5
A59
330
9EC
100
AcDbEntity
  8
CSLAYER10
  6
Continuous
100
AcDbText
 10
142.861558289683
 20
50.182617811279
 30
0.0
 40
4.0
  1
NXキーシリンダー
 41
0.5
  7
FX_FONT
100
AcDbText
  0
TEXT
  5
A5A
330
9EC
100
AcDbEntity
  8
CSLAYER10
  6
Continuous
100
AcDbText
 10
4.864511033902
 20
63.769111149569
 30
0.0
 40
4.0
  1
●カラー寸法
  7
FX_FONT
100
AcDbText
  0
LINE
  5
A5B
330
9EC
100
AcDbEntity
  8
CSLAYER10
  6
Continuous
100
AcDbLine
 10
1.864058734954
 20
62.290014945863
 30
0.0
 11
36.517169793223
 21
62.290014945863
 31
0.0
  0
ENDBLK
  5
A5D
330
9EC
100
AcDbEntity
  8
0
100
AcDbBlockEnd
  0
BLOCK
  5
AD7
330
AAF
100
AcDbEntity
  8
0
100
AcDbBlockBegin
  2
AD40038
 70
     0
 10
0.0
 20
0.0
 30
0.0
  3
AD40038
  1

  0
TEXT
  5
AD6
330
AAF
100
AcDbEntity
  8
CSLAYER1
100
AcDbText
 10
-0.266666666667
 20
-0.266666666667
 30
0.0
 40
4.0
  1
Ｘ・ＮＸキーシリンダー
  7
FX_FONT
100
AcDbText
  0
ENDBLK
  5
AD8
330
AAF
100
AcDbEntity
  8
0
100
AcDbBlockEnd
  0
BLOCK
  5
B06
330
ADB
100
AcDbEntity
  8
0
100
AcDbBlockBegin
  2
AD40178
 70
     0
 10
0.0
 20
0.0
 30
0.0
  3
AD40178
  1

  0
TEXT
  5
B03
330
ADB
100
AcDbEntity
  8
CSLAYER10
  6
Continuous
 62
     7
100
AcDbText
 10
-0.419650291424
 20
15.999992
 30
0.0
 40
4.0
  1
30 ~ 38未満
 41
0.629895017497
  7
FX_FONT
 72
     5
 11
20.580349708576
 21
15.999992
 31
0.0
100
AcDbText
  0
TEXT
  5
B04
330
ADB
100
AcDbEntity
  8
CSLAYER10
  6
Continuous
 62
     7
100
AcDbText
 10
-0.419650291424
 20
8.0
 30
0.0
 40
4.0
  1
38 ~ 42未満
 41
0.63
  7
FX_FONT
 72
     5
 11
20.580349708576
 21
8.0
 31
0.0
100
AcDbText
  0
TEXT
  5
B05
330
ADB
100
AcDbEntity
  8
CSLAYER10
  6
Continuous
 62
     7
100
AcDbText
 10
-0.419650291424
 20
0.0
 30
0.0
 40
4.0
  1
42 ~ 46未満
 41
0.629475437136
  7
FX_FONT
 72
     5
 11
20.580349708576
 21
0.0
 31
0.0
100
AcDbText
  0
ENDBLK
  5
B07
330
ADB
100
AcDbEntity
  8
0
100
AcDbBlockEnd
  0
BLOCK
  5
B35
330
B0C
100
AcDbEntity
  8
0
100
AcDbBlockBegin
  2
AD40158
 70
     0
 10
0.0
 20
0.0
 30
0.0
  3
AD40158
  1

  0
TEXT
  5
B34
330
B0C
100
AcDbEntity
  8
CSLAYER10
  6
Continuous
 62
     7
100
AcDbText
 10
-0.419930011665
 20
0.0
 30
0.0
 40
4.0
  1
30 ~ 38未満
 41
0.629895017497
  7
FX_FONT
 72
     5
 11
20.580069988335
 21
0.0
 31
0.0
100
AcDbText
  0
ENDBLK
  5
B36
330
B0C
100
AcDbEntity
  8
0
100
AcDbBlockEnd
  0
BLOCK
  5
B62
330
B39
100
AcDbEntity
  8
0
100
AcDbBlockBegin
  2
AD400B8
 70
     0
 10
0.0
 20
0.0
 30
0.0
  3
AD400B8
  1

  0
TEXT
  5
B61
330
B39
100
AcDbEntity
  8
CSLAYER10
  6
Continuous
 62
     7
100
AcDbText
 10
-1.139534883721
 20
0.0
 30
0.0
 40
4.0
  1
（以上 ~ 未満）
 41
0.610465116279
  7
FX_FONT
 72
     5
 11
19.860465116279
 21
0.0
 31
0.0
100
AcDbText
  0
ENDBLK
  5
B63
330
B39
100
AcDbEntity
  8
0
100
AcDbBlockEnd
  0
BLOCK
  5
B8E
330
B65
100
AcDbEntity
  8
0
100
AcDbBlockBegin
  2
AD40128
 70
     0
 10
0.0
 20
0.0
 30
0.0
  3
AD40128
  1

  0
TEXT
  5
B8D
330
B65
100
AcDbEntity
  8
CSLAYER10
  6
Continuous
 62
     7
100
AcDbText
 10
-0.580110497238
 20
0.0
 30
0.0
 40
4.0
  1
42 ~ 46
 41
0.870165745856
  7
FX_FONT
 72
     5
 11
20.419889502762
 21
0.0
 31
0.0
100
AcDbText
  0
ENDBLK
  5
B8F
330
B65
100
AcDbEntity
  8
0
100
AcDbBlockEnd
  0
BLOCK
  5
BCB
330
B97
100
AcDbEntity
  8
0
100
AcDbBlockBegin
  2
15A80190
 70
     0
 10
0.0
 20
0.0
 30
0.0
  3
15A80190
  1

  0
TEXT
  5
BBF
330
B97
100
AcDbEntity
  8
CSLAYER10
  6
Continuous
 62
     7
100
AcDbText
 10
7.175125476965
 20
25.471132672362
 30
0.0
 40
4.0
  1
高さ(H)
 41
0.89552238806
  7
FX_FONT
 72
     5
 11
25.175125476965
 21
25.471132672362
 31
0.0
100
AcDbText
  0
TEXT
  5
BC0
330
B97
100
AcDbEntity
  8
CSLAYER10
  6
Continuous
 62
     7
100
AcDbText
 10
37.812047331655
 20
25.946842760778
 30
0.0
 40
4.0
  1
直径(D)
 41
0.89552238806
  7
FX_FONT
 72
     5
 11
55.812047331655
 21
25.946842760778
 31
0.0
100
AcDbText
  0
TEXT
  5
BC1
330
B97
100
AcDbEntity
  8
CSLAYER10
  6
Continuous
 62
     7
100
AcDbText
 10
10.096667633649
 20
17.162432896848
 30
0.0
 40
4.0
  1
23.5
 41
0.652173913043
  7
FX_FONT
 72
     5
 11
20.096667633649
 21
17.162432896848
 31
0.0
100
AcDbText
  0
TEXT
  5
BC2
330
B97
100
AcDbEntity
  8
CSLAYER10
  6
Continuous
 62
     7
100
AcDbText
 10
10.103503633649
 20
9.462519896848
 30
0.0
 40
4.0
  1
21.0
 41
0.662739322533
  7
FX_FONT
 72
     5
 11
20.103503633649
 21
9.462519896848
 31
0.0
100
AcDbText
  0
TEXT
  5
BC3
330
B97
100
AcDbEntity
  8
CSLAYER10
  6
Continuous
 62
     7
100
AcDbText
 10
10.096667633649
 20
1.462100896848
 30
0.0
 40
4.0
  1
16.0
 41
0.661521499449
  7
FX_FONT
 72
     5
 11
20.096667633649
 21
1.462100896848
 31
0.0
100
AcDbText
  0
TEXT
  5
BC4
330
B97
100
AcDbEntity
  8
CSLAYER10
  6
Continuous
 62
     7
100
AcDbText
 10
39.951393488339
 20
17.828648985264
 30
0.0
 40
4.0
  1
%%C39.0
 41
0.689599186677
  7
FX_FONT
 72
     5
 11
53.11635277621
 21
17.828648985264
 31
0.0
100
AcDbText
  0
TEXT
  5
BC5
330
B97
100
AcDbEntity
  8
CSLAYER10
  6
Continuous
 62
     7
100
AcDbText
 10
39.951393488339
 20
9.938229985264
 30
0.0
 40
4.0
  1
%%C39.0
 41
0.705533795537
  7
FX_FONT
 72
     5
 11
53.420556262766
 21
9.938229985264
 31
0.0
100
AcDbText
  0
TEXT
  5
BC6
330
B97
100
AcDbEntity
  8
CSLAYER10
  6
Continuous
 62
     7
100
AcDbText
 10
40.057258488339
 20
1.535237985264
 30
0.0
 40
4.0
  1
%%C38.0
 41
0.703131487967
  7
FX_FONT
 72
     5
 11
53.479257336429
 21
1.535237985264
 31
0.0
100
AcDbText
  0
LINE
  5
BC7
330
B97
100
AcDbEntity
  8
CSLAYER10
  6
Continuous
 62
     3
100
AcDbLine
 10
0.0
 20
0.0
 30
0.0
 11
0.0
 21
48.0
 31
0.0
  0
LINE
  5
BC8
330
B97
100
AcDbEntity
  8
CSLAYER10
  6
Continuous
 62
     3
100
AcDbLine
 10
31.063457873703
 20
32.0
 30
0.0
 11
31.063457873703
 21
0.0
 31
0.0
  0
TEXT
  5
BC9
330
B97
100
AcDbEntity
  8
CSLAYER10
  6
Continuous
100
AcDbText
 10
22.263058789554
 20
33.913961584618
 30
0.0
 40
4.0
  1
Ａ＝40
  7
FX_FONT
100
AcDbText
  0
TEXT
  5
BCA
330
B97
100
AcDbEntity
  8
CSLAYER1
100
AcDbText
 10
2.791828091865
 20
41.729835371282
 30
0.0
 40
4.0
  1
シリンダー（5、6本ピン）、サムターン
 41
0.65
  7
FX_FONT
100
AcDbText
  0
ENDBLK
  5
BCC
330
B97
100
AcDbEntity
  8
0
100
AcDbBlockEnd
  0
ENDSEC
  0
SECTION
  2
ENTITIES
  0
LINE
  5
411
330
1D
100
AcDbEntity
  8
CSLAYER1
  6
Continuous
100
AcDbLine
 10
48.5
 20
308.0
 30
0.0
 11
48.5
 21
212.0
 31
0.0
  0
LINE
  5
412
330
1D
100
AcDbEntity
  8
CSLAYER1
  6
Continuous
100
AcDbLine
 10
48.5
 20
212.0
 30
0.0
 11
50.0
 21
212.0
 31
0.0
  0
LINE
  5
413
330
1D
100
AcDbEntity
  8
CSLAYER1
  6
Continuous
100
AcDbLine
 10
50.0
 20
212.0
 30
0.0
 11
50.0
 21
308.0
 31
0.0
  0
LINE
  5
414
330
1D
100
AcDbEntity
  8
CSLAYER1
  6
Continuous
100
AcDbLine
 10
50.0
 20
308.0
 30
0.0
 11
48.5
 21
308.0
 31
0.0
  0
LINE
  5
415
330
1D
100
AcDbEntity
  8
CSLAYER1
  6
Continuous
100
AcDbLine
 10
48.5
 20
306.5
 30
0.0
 11
48.0
 21
306.5
 31
0.0
  0
LINE
  5
416
330
1D
100
AcDbEntity
  8
CSLAYER1
  6
Continuous
100
AcDbLine
 10
48.0
 20
306.5
 30
0.0
 11
48.0
 21
302.5
 31
0.0
  0
ARC
  5
417
330
1D
100
AcDbEntity
  8
CSLAYER1
  6
Continuous
100
AcDbCircle
 10
48.0
 20
302.0
 30
0.0
 40
0.5
100
AcDbArc
 50
90.0
 51
180.0
  0
LINE
  5
418
330
1D
100
AcDbEntity
  8
CSLAYER1
  6
Continuous
100
AcDbLine
 10
47.5
 20
302.0
 30
0.0
 11
47.5
 21
298.0
 31
0.0
  0
ARC
  5
419
330
1D
100
AcDbEntity
  8
CSLAYER1
  6
Continuous
100
AcDbCircle
 10
48.0
 20
298.0
 30
0.0
 40
0.5
100
AcDbArc
 50
180.0
 51
270.0
  0
LINE
  5
41A
330
1D
100
AcDbEntity
  8
CSLAYER1
  6
Continuous
100
AcDbLine
 10
48.0
 20
297.5
 30
0.0
 11
48.0
 21
294.0
 31
0.0
  0
LINE
  5
41B
330
1D
100
AcDbEntity
  8
CSLAYER1
  6
Continuous
100
AcDbLine
 10
48.0
 20
294.0
 30
0.0
 11
33.0
 21
294.0
 31
0.0
  0
ARC
  5
41C
330
1D
100
AcDbEntity
  8
CSLAYER1
  6
Continuous
100
AcDbCircle
 10
33.0
 20
293.5
 30
0.0
 40
0.5
100
AcDbArc
 50
90.0
 51
180.0
  0
LINE
  5
41D
330
1D
100
AcDbEntity
  8
CSLAYER1
  6
Continuous
100
AcDbLine
 10
32.5
 20
293.5
 30
0.0
 11
32.5
 21
225.5
 31
0.0
  0
ARC
  5
41E
330
1D
100
AcDbEntity
  8
CSLAYER1
  6
Continuous
100
AcDbCircle
 10
33.0
 20
225.5
 30
0.0
 40
0.5
100
AcDbArc
 50
180.0
 51
270.0
  0
LINE
  5
41F
330
1D
100
AcDbEntity
  8
CSLAYER1
  6
Continuous
100
AcDbLine
 10
33.0
 20
225.0
 30
0.0
 11
48.0
 21
225.0
 31
0.0
  0
LINE
  5
420
330
1D
100
AcDbEntity
  8
CSLAYER1
  6
Continuous
100
AcDbLine
 10
48.0
 20
225.0
 30
0.0
 11
48.0
 21
222.5
 31
0.0
  0
ARC
  5
421
330
1D
100
AcDbEntity
  8
CSLAYER1
  6
Continuous
100
AcDbCircle
 10
48.0
 20
222.0
 30
0.0
 40
0.5
100
AcDbArc
 50
90.0
 51
180.0
  0
LINE
  5
422
330
1D
100
AcDbEntity
  8
CSLAYER1
  6
Continuous
100
AcDbLine
 10
47.5
 20
222.0
 30
0.0
 11
47.5
 21
218.0
 31
0.0
  0
ARC
  5
423
330
1D
100
AcDbEntity
  8
CSLAYER1
  6
Continuous
100
AcDbCircle
 10
48.0
 20
218.0
 30
0.0
 40
0.5
100
AcDbArc
 50
180.0
 51
270.0
  0
LINE
  5
424
330
1D
100
AcDbEntity
  8
CSLAYER1
  6
Continuous
100
AcDbLine
 10
48.0
 20
217.5
 30
0.0
 11
48.0
 21
213.5
 31
0.0
  0
LINE
  5
425
330
1D
100
AcDbEntity
  8
CSLAYER1
  6
Continuous
100
AcDbLine
 10
48.0
 20
213.5
 30
0.0
 11
48.5
 21
213.5
 31
0.0
  0
ARC
  5
426
330
1D
100
AcDbEntity
  8
CSLAYER1
  6
Continuous
100
AcDbCircle
 10
48.0
 20
217.5
 30
0.0
 40
0.5
100
AcDbArc
 50
0.0
 51
90.0
  0
LINE
  5
427
330
1D
100
AcDbEntity
  8
CSLAYER1
  6
Continuous
100
AcDbLine
 10
48.0
 20
218.0
 30
0.0
 11
48.0
 21
222.0
 31
0.0
  0
ARC
  5
428
330
1D
100
AcDbEntity
  8
CSLAYER1
  6
Continuous
100
AcDbCircle
 10
48.0
 20
222.5
 30
0.0
 40
0.5
100
AcDbArc
 50
270.0
 51
0.0
  0
ARC
  5
429
330
1D
100
AcDbEntity
  8
CSLAYER1
  6
Continuous
100
AcDbCircle
 10
48.0
 20
225.0
 30
0.0
 40
0.5
100
AcDbArc
 50
0.0
 51
90.0
  0
LINE
  5
42A
330
1D
100
AcDbEntity
  8
CSLAYER1
  6
Continuous
100
AcDbLine
 10
48.5
 20
225.5
 30
0.0
 11
33.0
 21
225.5
 31
0.0
  0
LINE
  5
42B
330
1D
100
AcDbEntity
  8
CSLAYER1
  6
Continuous
100
AcDbLine
 10
87.75
 20
212.3
 30
0.0
 11
87.75
 21
307.7
 31
0.0
  0
ARC
  5
42C
330
1D
100
AcDbEntity
  8
CSLAYER1
  6
Continuous
100
AcDbCircle
 10
88.05
 20
307.7
 30
0.0
 40
0.3
100
AcDbArc
 50
90.0
 51
180.0
  0
LINE
  5
42D
330
1D
100
AcDbEntity
  8
CSLAYER1
  6
Continuous
100
AcDbLine
 10
88.05
 20
308.0
 30
0.0
 11
111.95
 21
308.0
 31
0.0
  0
ARC
  5
42E
330
1D
100
AcDbEntity
  8
CSLAYER1
  6
Continuous
100
AcDbCircle
 10
111.95
 20
307.7
 30
0.0
 40
0.3
100
AcDbArc
 50
0.0
 51
90.0
  0
LINE
  5
42F
330
1D
100
AcDbEntity
  8
CSLAYER1
  6
Continuous
100
AcDbLine
 10
112.25
 20
307.7
 30
0.0
 11
112.25
 21
300.3
 31
0.0
  0
ARC
  5
430
330
1D
100
AcDbEntity
  8
CSLAYER1
  6
Continuous
100
AcDbCircle
 10
112.55
 20
300.3
 30
0.0
 40
0.3
100
AcDbArc
 50
180.0
 51
270.0
  0
LINE
  5
431
330
1D
100
AcDbEntity
  8
CSLAYER1
  6
Continuous
100
AcDbLine
 10
112.55
 20
300.0
 30
0.0
 11
120.0
 21
300.0
 31
0.0
  0
ARC
  5
432
330
1D
100
AcDbEntity
  8
CSLAYER1
  6
Continuous
100
AcDbCircle
 10
120.0
 20
297.5
 30
0.0
 40
2.5
100
AcDbArc
 50
0.0
 51
90.0
  0
LINE
  5
433
330
1D
100
AcDbEntity
  8
CSLAYER1
  6
Continuous
100
AcDbLine
 10
122.5
 20
297.5
 30
0.0
 11
122.5
 21
222.5
 31
0.0
  0
ARC
  5
434
330
1D
100
AcDbEntity
  8
CSLAYER1
  6
Continuous
100
AcDbCircle
 10
120.0
 20
222.5
 30
0.0
 40
2.5
100
AcDbArc
 50
270.0
 51
0.0
  0
LINE
  5
435
330
1D
100
AcDbEntity
  8
CSLAYER1
  6
Continuous
100
AcDbLine
 10
120.0
 20
220.0
 30
0.0
 11
112.55
 21
220.0
 31
0.0
  0
ARC
  5
436
330
1D
100
AcDbEntity
  8
CSLAYER1
  6
Continuous
100
AcDbCircle
 10
112.55
 20
219.7
 30
0.0
 40
0.3
100
AcDbArc
 50
90.0
 51
180.0
  0
LINE
  5
437
330
1D
100
AcDbEntity
  8
CSLAYER1
  6
Continuous
100
AcDbLine
 10
112.25
 20
219.7
 30
0.0
 11
112.25
 21
212.3
 31
0.0
  0
ARC
  5
438
330
1D
100
AcDbEntity
  8
CSLAYER1
  6
Continuous
100
AcDbCircle
 10
111.95
 20
212.3
 30
0.0
 40
0.3
100
AcDbArc
 50
270.0
 51
0.0
  0
LINE
  5
439
330
1D
100
AcDbEntity
  8
CSLAYER1
  6
Continuous
100
AcDbLine
 10
111.95
 20
212.0
 30
0.0
 11
88.05
 21
212.0
 31
0.0
  0
ARC
  5
43A
330
1D
100
AcDbEntity
  8
CSLAYER1
  6
Continuous
100
AcDbCircle
 10
88.05
 20
212.3
 30
0.0
 40
0.3
100
AcDbArc
 50
180.0
 51
270.0
  0
CIRCLE
  5
43B
330
1D
100
AcDbEntity
  8
CSLAYER1
  6
Continuous
100
AcDbCircle
 10
100.0
 20
220.0
 30
0.0
 40
4.1
  0
CIRCLE
  5
43C
330
1D
100
AcDbEntity
  8
CSLAYER1
  6
Continuous
100
AcDbCircle
 10
100.0
 20
220.0
 30
0.0
 40
2.9
  0
LINE
  5
43D
330
1D
100
AcDbEntity
  8
CSLAYER1
  6
Continuous
100
AcDbLine
 10
94.0
 20
226.5
 30
0.0
 11
109.0
 21
226.5
 31
0.0
  0
ARC
  5
43E
330
1D
100
AcDbEntity
  8
CSLAYER1
  6
Continuous
100
AcDbCircle
 10
109.0
 20
228.0
 30
0.0
 40
1.5
100
AcDbArc
 50
270.0
 51
90.0
  0
LINE
  5
43F
330
1D
100
AcDbEntity
  8
CSLAYER1
  6
Continuous
100
AcDbLine
 10
109.0
 20
229.5
 30
0.0
 11
109.0
 21
290.5
 31
0.0
  0
ARC
  5
440
330
1D
100
AcDbEntity
  8
CSLAYER1
  6
Continuous
100
AcDbCircle
 10
109.0
 20
292.0
 30
0.0
 40
1.5
100
AcDbArc
 50
270.0
 51
90.0
  0
LINE
  5
441
330
1D
100
AcDbEntity
  8
CSLAYER1
  6
Continuous
100
AcDbLine
 10
109.0
 20
293.5
 30
0.0
 11
94.0
 21
293.5
 31
0.0
  0
ARC
  5
442
330
1D
100
AcDbEntity
  8
CSLAYER1
  6
Continuous
100
AcDbCircle
 10
94.0
 20
292.5
 30
0.0
 40
1.0
100
AcDbArc
 50
90.0
 51
180.0
  0
LINE
  5
443
330
1D
100
AcDbEntity
  8
CSLAYER1
  6
Continuous
100
AcDbLine
 10
93.0
 20
292.5
 30
0.0
 11
93.0
 21
227.5
 31
0.0
  0
ARC
  5
444
330
1D
100
AcDbEntity
  8
CSLAYER1
  6
Continuous
100
AcDbCircle
 10
94.0
 20
227.5
 30
0.0
 40
1.0
100
AcDbArc
 50
180.0
 51
270.0
  0
CIRCLE
  5
445
330
1D
100
AcDbEntity
  8
CSLAYER1
  6
Continuous
100
AcDbCircle
 10
100.0
 20
300.0
 30
0.0
 40
2.9
  0
CIRCLE
  5
446
330
1D
100
AcDbEntity
  8
CSLAYER1
  6
Continuous
100
AcDbCircle
 10
100.0
 20
300.0
 30
0.0
 40
4.1
  0
ARC
  5
447
330
1D
100
AcDbEntity
  8
CSLAYER1
  6
Continuous
100
AcDbCircle
 10
48.0
 20
297.5
 30
0.0
 40
0.5
100
AcDbArc
 50
0.0
 51
90.0
  0
LINE
  5
448
330
1D
100
AcDbEntity
  8
CSLAYER1
  6
Continuous
100
AcDbLine
 10
48.0
 20
298.0
 30
0.0
 11
48.0
 21
302.0
 31
0.0
  0
ARC
  5
449
330
1D
100
AcDbEntity
  8
CSLAYER1
  6
Continuous
100
AcDbCircle
 10
48.0
 20
302.5
 30
0.0
 40
0.5
100
AcDbArc
 50
270.0
 51
0.0
  0
ARC
  5
44A
330
1D
100
AcDbEntity
  8
CSLAYER1
  6
Continuous
100
AcDbCircle
 10
48.0
 20
294.0
 30
0.0
 40
0.5
100
AcDbArc
 50
270.0
 51
0.0
  0
LINE
  5
44B
330
1D
100
AcDbEntity
  8
CSLAYER1
  6
Continuous
100
AcDbLine
 10
48.5
 20
293.5
 30
0.0
 11
33.0
 21
293.5
 31
0.0
  0
LINE
  5
44C
330
1D
100
AcDbEntity
  8
CSLAYER1
  6
Continuous
100
AcDbLine
 10
87.5
 20
185.0
 30
0.0
 11
87.5
 21
183.5
 31
0.0
  0
LINE
  5
44D
330
1D
100
AcDbEntity
  8
CSLAYER1
  6
Continuous
100
AcDbLine
 10
87.5
 20
183.5
 30
0.0
 11
120.01717
 21
183.5
 31
0.0
  0
LINE
  5
44E
330
1D
100
AcDbEntity
  8
CSLAYER1
  6
Continuous
100
AcDbLine
 10
120.01717
 20
183.5
 30
0.0
 11
121.746579
 21
182.495439
 31
0.0
  0
LINE
  5
44F
330
1D
100
AcDbEntity
  8
CSLAYER1
  6
Continuous
100
AcDbLine
 10
121.746579
 20
182.495439
 30
0.0
 11
122.5
 21
183.792495
 31
0.0
  0
LINE
  5
450
330
1D
100
AcDbEntity
  8
CSLAYER1
  6
Continuous
100
AcDbLine
 10
122.5
 20
183.792495
 30
0.0
 11
120.770591
 21
184.797057
 31
0.0
  0
ARC
  5
451
330
1D
100
AcDbEntity
  8
CSLAYER1
  6
Continuous
100
AcDbCircle
 10
120.01717
 20
183.5
 30
0.0
 40
1.5
100
AcDbArc
 50
59.848992
 51
90.0
  0
LINE
  5
452
330
1D
100
AcDbEntity
  8
CSLAYER1
  6
Continuous
100
AcDbLine
 10
120.01717
 20
185.0
 30
0.0
 11
87.5
 21
185.0
 31
0.0
  0
LINE
  5
453
330
1D
100
AcDbEntity
  8
CSLAYER1
  6
Continuous
100
AcDbLine
 10
89.0
 20
183.5
 30
0.0
 11
89.0
 21
168.0
 31
0.0
  0
ARC
  5
454
330
1D
100
AcDbEntity
  8
CSLAYER1
  6
Continuous
100
AcDbCircle
 10
89.5
 20
168.0
 30
0.0
 40
0.5
100
AcDbArc
 50
180.0
 51
270.0
  0
LINE
  5
455
330
1D
100
AcDbEntity
  8
CSLAYER1
  6
Continuous
100
AcDbLine
 10
89.5
 20
167.5
 30
0.0
 11
110.5
 21
167.5
 31
0.0
  0
ARC
  5
456
330
1D
100
AcDbEntity
  8
CSLAYER1
  6
Continuous
100
AcDbCircle
 10
110.5
 20
168.0
 30
0.0
 40
0.5
100
AcDbArc
 50
270.0
 51
0.0
  0
LINE
  5
457
330
1D
100
AcDbEntity
  8
CSLAYER1
  6
Continuous
100
AcDbLine
 10
111.0
 20
168.0
 30
0.0
 11
111.0
 21
183.5
 31
0.0
  0
LINE
  5
458
330
1D
100
AcDbEntity
  8
CSLAYER1
  6
Continuous
100
AcDbLine
 10
110.5
 20
183.5
 30
0.0
 11
110.5
 21
168.0
 31
0.0
  0
LINE
  5
459
330
1D
100
AcDbEntity
  8
CSLAYER1
  6
Continuous
100
AcDbLine
 10
110.5
 20
182.5
 30
0.0
 11
104.1
 21
182.5
 31
0.0
  0
LINE
  5
45A
330
1D
100
AcDbEntity
  8
CSLAYER1
  6
Continuous
100
AcDbLine
 10
104.1
 20
182.5
 30
0.0
 11
104.1
 21
183.5
 31
0.0
  0
LINE
  5
45B
330
1D
100
AcDbEntity
  8
CSLAYER1
  6
Continuous
100
AcDbLine
 10
104.0
 20
183.5
 30
0.0
 11
104.0
 21
182.96
 31
0.0
  0
LINE
  5
45C
330
1D
100
AcDbEntity
  8
CSLAYER1
  6
Continuous
100
AcDbLine
 10
110.5
 20
183.0
 30
0.0
 11
89.5
 21
183.0
 31
0.0
  0
LINE
  5
45D
330
1D
100
AcDbEntity
  8
CSLAYER1
  6
Continuous
100
AcDbLine
 10
89.5
 20
182.5
 30
0.0
 11
95.9
 21
182.5
 31
0.0
  0
LINE
  5
45E
330
1D
100
AcDbEntity
  8
CSLAYER1
  6
Continuous
100
AcDbLine
 10
95.9
 20
182.5
 30
0.0
 11
95.9
 21
183.5
 31
0.0
  0
LINE
  5
45F
330
1D
100
AcDbEntity
  8
CSLAYER1
  6
Continuous
100
AcDbLine
 10
96.0
 20
183.5
 30
0.0
 11
96.0
 21
182.96
 31
0.0
  0
LINE
  5
460
330
1D
100
AcDbEntity
  8
CSLAYER1
  6
Continuous
100
AcDbLine
 10
89.5
 20
183.5
 30
0.0
 11
89.5
 21
168.0
 31
0.0
  0
LINE
  5
461
330
1D
100
AcDbEntity
  8
CSLAYER1
  6
Continuous
100
AcDbLine
 10
112.25
 20
183.5
 30
0.0
 11
112.25
 21
185.0
 31
0.0
  0
LINE
  5
471
102
{ACAD_REACTORS
330
9E1
102
}
330
1D
100
AcDbEntity
  8
CSLAYER1
  6
Continuous
100
AcDbLine
 10
420.0
 20
336.0
 30
0.0
 11
420.0
 21
186.0
 31
0.0
  0
LINE
  5
472
330
1D
100
AcDbEntity
  8
CSLAYER1
  6
Continuous
100
AcDbLine
 10
420.0
 20
186.0
 30
0.0
 11
424.0
 21
186.0
 31
0.0
  0
LINE
  5
473
102
{ACAD_REACTORS
330
9E8
102
}
330
1D
100
AcDbEntity
  8
CSLAYER1
  6
Continuous
100
AcDbLine
 10
424.0
 20
186.0
 30
0.0
 11
424.0
 21
336.0
 31
0.0
  0
LINE
  5
474
102
{ACAD_REACTORS
330
9E1
330
9E8
102
}
330
1D
100
AcDbEntity
  8
CSLAYER1
  6
Continuous
100
AcDbLine
 10
424.0
 20
336.0
 30
0.0
 11
420.0
 21
336.0
 31
0.0
  0
LINE
  5
475
102
{ACAD_REACTORS
330
9E1
330
9E8
102
}
330
1D
100
AcDbEntity
  8
CSLAYER1
  6
Continuous
100
AcDbLine
 10
422.0
 20
336.0
 30
0.0
 11
422.0
 21
186.0
 31
0.0
  0
LINE
  5
476
330
1D
100
AcDbEntity
  8
CSLAYER1
  6
Continuous
100
AcDbLine
 10
422.0
 20
133.5
 30
0.0
 11
422.0
 21
108.5
 31
0.0
  0
LINE
  5
477
330
1D
100
AcDbEntity
  8
CSLAYER1
  6
Continuous
100
AcDbLine
 10
420.0
 20
108.5
 30
0.0
 11
420.0
 21
133.5
 31
0.0
  0
LINE
  5
478
330
1D
100
AcDbEntity
  8
CSLAYER1
  6
Continuous
100
AcDbLine
 10
420.0
 20
133.5
 30
0.0
 11
424.0
 21
133.5
 31
0.0
  0
LINE
  5
479
330
1D
100
AcDbEntity
  8
CSLAYER1
  6
Continuous
100
AcDbLine
 10
424.0
 20
133.5
 30
0.0
 11
424.0
 21
108.5
 31
0.0
  0
LINE
  5
47A
330
1D
100
AcDbEntity
  8
CSLAYER1
  6
Continuous
100
AcDbLine
 10
424.0
 20
108.5
 30
0.0
 11
420.0
 21
108.5
 31
0.0
  0
LINE
  5
47B
330
1D
100
AcDbEntity
  8
CSLAYER1
  6
Continuous
100
AcDbLine
 10
420.0
 20
114.0
 30
0.0
 11
409.5
 21
114.0
 31
0.0
  0
LINE
  5
47C
330
1D
100
AcDbEntity
  8
CSLAYER1
  6
Continuous
100
AcDbLine
 10
409.5
 20
114.0
 30
0.0
 11
409.5
 21
115.5
 31
0.0
  0
LINE
  5
47D
330
1D
100
AcDbEntity
  8
CSLAYER1
  6
Continuous
100
AcDbLine
 10
409.5
 20
115.5
 30
0.0
 11
419.5
 21
128.0
 31
0.0
  0
LINE
  5
47E
330
1D
100
AcDbEntity
  8
CSLAYER1
  6
Continuous
100
AcDbLine
 10
419.5
 20
128.0
 30
0.0
 11
420.0
 21
128.0
 31
0.0
  0
LINE
  5
47F
330
1D
100
AcDbEntity
  8
CSLAYER1
  6
Continuous
100
AcDbLine
 10
424.0
 20
129.6
 30
0.0
 11
505.0
 21
129.6
 31
0.0
  0
LINE
  5
480
330
1D
100
AcDbEntity
  8
CSLAYER1
  6
Continuous
100
AcDbLine
 10
505.0
 20
129.6
 30
0.0
 11
505.0
 21
114.4
 31
0.0
  0
ARC
  5
481
330
1D
100
AcDbEntity
  8
CSLAYER1
  6
Continuous
100
AcDbCircle
 10
503.0
 20
114.4
 30
0.0
 40
2.0
100
AcDbArc
 50
270.0
 51
0.0
  0
LINE
  5
482
330
1D
100
AcDbEntity
  8
CSLAYER1
  6
Continuous
100
AcDbLine
 10
503.0
 20
112.4
 30
0.0
 11
424.0
 21
112.4
 31
0.0
  0
ARC
  5
483
330
1D
100
AcDbEntity
  8
CSLAYER1
  6
Continuous
100
AcDbCircle
 10
426.0
 20
114.4
 30
0.0
 40
2.0
100
AcDbArc
 50
180.0
 51
270.0
  0
LINE
  5
484
330
1D
100
AcDbEntity
  8
CSLAYER1
  6
Continuous
100
AcDbLine
 10
426.0
 20
111.7
 30
0.0
 11
440.5
 21
111.7
 31
0.0
  0
LINE
  5
485
330
1D
100
AcDbEntity
  8
CSLAYER1
  6
Continuous
100
AcDbLine
 10
440.5
 20
111.7
 30
0.0
 11
440.5
 21
112.4
 31
0.0
  0
LINE
  5
486
330
1D
100
AcDbEntity
  8
CSLAYER1
  6
Continuous
100
AcDbLine
 10
426.0
 20
111.7
 30
0.0
 11
426.0
 21
130.3
 31
0.0
  0
LINE
  5
487
330
1D
100
AcDbEntity
  8
CSLAYER1
  6
Continuous
100
AcDbLine
 10
426.0
 20
130.3
 30
0.0
 11
440.5
 21
130.3
 31
0.0
  0
LINE
  5
488
330
1D
100
AcDbEntity
  8
CSLAYER1
  6
Continuous
100
AcDbLine
 10
440.5
 20
130.3
 30
0.0
 11
440.5
 21
129.6
 31
0.0
  0
LINE
  5
489
330
1D
100
AcDbEntity
  8
CSLAYER1
  6
Continuous
100
AcDbLine
 10
486.3
 20
129.6
 30
0.0
 11
486.3
 21
112.4
 31
0.0
  0
LINE
  5
48A
330
1D
100
AcDbEntity
  8
CSLAYER1
  6
Continuous
100
AcDbLine
 10
493.7
 20
112.4
 30
0.0
 11
493.7
 21
129.6
 31
0.0
  0
ARC
  5
48E
330
1D
100
AcDbEntity
  8
CSLAYER1
  6
Continuous
100
AcDbCircle
 10
235.344242
 20
195.0
 30
0.0
 40
0.5
100
AcDbArc
 50
200.707732
 51
270.0
  0
LINE
  5
48F
330
1D
100
AcDbEntity
  8
CSLAYER1
  6
Continuous
100
AcDbLine
 10
235.344242
 20
194.5
 30
0.0
 11
241.5
 21
194.5
 31
0.0
  0
ARC
  5
490
330
1D
100
AcDbEntity
  8
CSLAYER1
  6
Continuous
100
AcDbCircle
 10
241.5
 20
195.0
 30
0.0
 40
0.5
100
AcDbArc
 50
270.0
 51
0.0
  0
LINE
  5
491
330
1D
100
AcDbEntity
  8
CSLAYER1
  6
Continuous
100
AcDbLine
 10
242.0
 20
195.0
 30
0.0
 11
242.0
 21
269.0
 31
0.0
  0
ARC
  5
492
330
1D
100
AcDbEntity
  8
CSLAYER1
  6
Continuous
100
AcDbCircle
 10
241.5
 20
269.0
 30
0.0
 40
0.5
100
AcDbArc
 50
0.0
 51
90.0
  0
LINE
  5
493
330
1D
100
AcDbEntity
  8
CSLAYER1
  6
Continuous
100
AcDbLine
 10
241.5
 20
269.5
 30
0.0
 11
235.344242
 21
269.5
 31
0.0
  0
ARC
  5
494
330
1D
100
AcDbEntity
  8
CSLAYER1
  6
Continuous
100
AcDbCircle
 10
235.344242
 20
269.0
 30
0.0
 40
0.5
100
AcDbArc
 50
90.0
 51
159.292268
  0
ARC
  5
495
330
1D
100
AcDbEntity
  8
CSLAYER1
  6
Continuous
100
AcDbCircle
 10
281.64636
 20
251.496747
 30
0.0
 40
50.0
100
AcDbArc
 50
159.292268
 51
170.789327
  0
LINE
  5
496
330
1D
100
AcDbEntity
  8
CSLAYER1
  6
Continuous
100
AcDbLine
 10
232.434299
 20
260.338301
 30
0.0
 11
230.957128
 21
251.694638
 31
0.0
  0
ARC
  5
497
330
1D
100
AcDbEntity
  8
CSLAYER1
  6
Continuous
100
AcDbCircle
 10
228.0
 20
252.2
 30
0.0
 40
3.0
100
AcDbArc
 50
270.0
 51
350.302047
  0
LINE
  5
498
330
1D
100
AcDbEntity
  8
CSLAYER1
  6
Continuous
100
AcDbLine
 10
228.0
 20
249.2
 30
0.0
 11
226.0
 21
249.2
 31
0.0
  0
ARC
  5
499
330
1D
100
AcDbEntity
  8
CSLAYER1
  6
Continuous
100
AcDbCircle
 10
226.0
 20
248.7
 30
0.0
 40
0.5
100
AcDbArc
 50
90.0
 51
180.0
  0
LINE
  5
49A
330
1D
100
AcDbEntity
  8
CSLAYER1
  6
Continuous
100
AcDbLine
 10
225.5
 20
248.7
 30
0.0
 11
225.5
 21
215.3
 31
0.0
  0
ARC
  5
49B
330
1D
100
AcDbEntity
  8
CSLAYER1
  6
Continuous
100
AcDbCircle
 10
226.0
 20
215.3
 30
0.0
 40
0.5
100
AcDbArc
 50
180.0
 51
270.0
  0
LINE
  5
49C
330
1D
100
AcDbEntity
  8
CSLAYER1
  6
Continuous
100
AcDbLine
 10
226.0
 20
214.8
 30
0.0
 11
228.0
 21
214.8
 31
0.0
  0
ARC
  5
49D
330
1D
100
AcDbEntity
  8
CSLAYER1
  6
Continuous
100
AcDbCircle
 10
228.0
 20
211.8
 30
0.0
 40
3.0
100
AcDbArc
 50
9.697953
 51
90.0
  0
LINE
  5
49E
330
1D
100
AcDbEntity
  8
CSLAYER1
  6
Continuous
100
AcDbLine
 10
230.957128
 20
212.305362
 30
0.0
 11
232.434299
 21
203.661699
 31
0.0
  0
ARC
  5
49F
330
1D
100
AcDbEntity
  8
CSLAYER1
  6
Continuous
100
AcDbCircle
 10
281.64636
 20
212.503253
 30
0.0
 40
50.0
100
AcDbArc
 50
189.210673
 51
200.707732
  0
LINE
  5
4A0
330
1D
100
AcDbEntity
  8
CSLAYER1
  6
Continuous
100
AcDbLine
 10
235.0
 20
196.5
 30
0.0
 11
235.0
 21
267.5
 31
0.0
  0
LINE
  5
4A1
330
1D
100
AcDbEntity
  8
CSLAYER1
  6
Continuous
100
AcDbLine
 10
233.02263
 20
278.044927
 30
0.0
 11
242.0
 21
277.618696
 31
0.0
  0
LINE
  5
4A2
330
1D
100
AcDbEntity
  8
CSLAYER1
  6
Continuous
100
AcDbLine
 10
242.0
 20
277.618696
 30
0.0
 11
242.0
 21
316.381304
 31
0.0
  0
LINE
  5
4A3
330
1D
100
AcDbEntity
  8
CSLAYER1
  6
Continuous
100
AcDbLine
 10
242.0
 20
316.381304
 30
0.0
 11
233.02263
 21
315.955073
 31
0.0
  0
ARC
  5
4A4
330
1D
100
AcDbEntity
  8
CSLAYER1
  6
Continuous
100
AcDbCircle
 10
234.919628
 20
276.000081
 30
0.0
 40
40.0
100
AcDbArc
 50
92.71827
 51
109.962483
  0
ARC
  5
4A5
330
1D
100
AcDbEntity
  8
CSLAYER1
  6
Continuous
100
AcDbCircle
 10
221.4
 20
313.220769
 30
0.0
 40
0.4
100
AcDbArc
 50
109.962483
 51
180.0
  0
LINE
  5
4A6
330
1D
100
AcDbEntity
  8
CSLAYER1
  6
Continuous
100
AcDbLine
 10
221.0
 20
313.220769
 30
0.0
 11
221.0
 21
280.779231
 31
0.0
  0
ARC
  5
4A7
330
1D
100
AcDbEntity
  8
CSLAYER1
  6
Continuous
100
AcDbCircle
 10
221.4
 20
280.779231
 30
0.0
 40
0.4
100
AcDbArc
 50
180.0
 51
250.037517
  0
ARC
  5
4A8
330
1D
100
AcDbEntity
  8
CSLAYER1
  6
Continuous
100
AcDbCircle
 10
234.919628
 20
317.999919
 30
0.0
 40
40.0
100
AcDbArc
 50
250.037517
 51
267.28173
  0
LINE
  5
4A9
330
1D
100
AcDbEntity
  8
CSLAYER1
  6
Continuous
100
AcDbLine
 10
221.0
 20
282.9
 30
0.0
 11
220.5
 21
282.9
 31
0.0
  0
ARC
  5
4AA
330
1D
100
AcDbEntity
  8
CSLAYER1
  6
Continuous
100
AcDbCircle
 10
220.5
 20
283.4
 30
0.0
 40
0.5
100
AcDbArc
 50
180.0
 51
270.0
  0
LINE
  5
4AB
330
1D
100
AcDbEntity
  8
CSLAYER1
  6
Continuous
100
AcDbLine
 10
220.0
 20
283.4
 30
0.0
 11
220.0
 21
310.6
 31
0.0
  0
ARC
  5
4AC
330
1D
100
AcDbEntity
  8
CSLAYER1
  6
Continuous
100
AcDbCircle
 10
220.5
 20
310.6
 30
0.0
 40
0.5
100
AcDbArc
 50
90.0
 51
180.0
  0
LINE
  5
4AD
330
1D
100
AcDbEntity
  8
CSLAYER1
  6
Continuous
100
AcDbLine
 10
220.5
 20
311.1
 30
0.0
 11
221.0
 21
311.1
 31
0.0
  0
LINE
  5
4AE
330
1D
100
AcDbEntity
  8
CSLAYER1
  6
Continuous
100
AcDbLine
 10
220.0
 20
300.15
 30
0.0
 11
219.92
 21
300.15
 31
0.0
  0
LINE
  5
4AF
330
1D
100
AcDbEntity
  8
CSLAYER1
  6
Continuous
100
AcDbLine
 10
219.92
 20
300.15
 30
0.0
 11
219.92
 21
285.85
 31
0.0
  0
LINE
  5
4B0
330
1D
100
AcDbEntity
  8
CSLAYER1
  6
Continuous
100
AcDbLine
 10
219.92
 20
285.85
 30
0.0
 11
219.62
 21
286.15
 31
0.0
  0
LINE
  5
4B1
330
1D
100
AcDbEntity
  8
CSLAYER1
  6
Continuous
100
AcDbLine
 10
219.62
 20
286.15
 30
0.0
 11
219.62
 21
299.85
 31
0.0
  0
LINE
  5
4B2
330
1D
100
AcDbEntity
  8
CSLAYER1
  6
Continuous
100
AcDbLine
 10
219.62
 20
299.85
 30
0.0
 11
219.92
 21
300.15
 31
0.0
  0
LINE
  5
4B3
330
1D
100
AcDbEntity
  8
CSLAYER1
  6
Continuous
100
AcDbLine
 10
257.796336
 20
306.545726
 30
0.0
 11
258.933324
 21
306.52588
 31
0.0
  0
LINE
  5
4B4
330
1D
100
AcDbEntity
  8
CSLAYER1
  6
Continuous
100
AcDbLine
 10
258.933324
 20
306.52588
 30
0.0
 11
259.337438
 21
306.337438
 31
0.0
  0
LINE
  5
4B5
330
1D
100
AcDbEntity
  8
CSLAYER1
  6
Continuous
100
AcDbLine
 10
259.337438
 20
306.337438
 30
0.0
 11
259.52588
 21
305.933324
 31
0.0
  0
LINE
  5
4B6
330
1D
100
AcDbEntity
  8
CSLAYER1
  6
Continuous
100
AcDbLine
 10
259.52588
 20
305.933324
 30
0.0
 11
259.545726
 21
304.796336
 31
0.0
  0
ARC
  5
4B7
330
1D
100
AcDbEntity
  8
CSLAYER1
  6
Continuous
100
AcDbCircle
 10
260.0
 20
307.0
 30
0.0
 40
2.25
100
AcDbArc
 50
258.351942
 51
281.648058
  0
LINE
  5
4B8
330
1D
100
AcDbEntity
  8
CSLAYER1
  6
Continuous
100
AcDbLine
 10
260.454274
 20
304.796336
 30
0.0
 11
260.47412
 21
305.933324
 31
0.0
  0
LINE
  5
4B9
330
1D
100
AcDbEntity
  8
CSLAYER1
  6
Continuous
100
AcDbLine
 10
260.47412
 20
305.933324
 30
0.0
 11
260.662562
 21
306.337438
 31
0.0
  0
LINE
  5
4BA
330
1D
100
AcDbEntity
  8
CSLAYER1
  6
Continuous
100
AcDbLine
 10
260.662562
 20
306.337438
 30
0.0
 11
261.066676
 21
306.52588
 31
0.0
  0
LINE
  5
4BB
330
1D
100
AcDbEntity
  8
CSLAYER1
  6
Continuous
100
AcDbLine
 10
261.066676
 20
306.52588
 30
0.0
 11
262.203664
 21
306.545726
 31
0.0
  0
ARC
  5
4BC
330
1D
100
AcDbEntity
  8
CSLAYER1
  6
Continuous
100
AcDbCircle
 10
260.0
 20
307.0
 30
0.0
 40
2.25
100
AcDbArc
 50
348.351942
 51
11.648058
  0
LINE
  5
4BD
330
1D
100
AcDbEntity
  8
CSLAYER1
  6
Continuous
100
AcDbLine
 10
262.203664
 20
307.454274
 30
0.0
 11
261.066676
 21
307.47412
 31
0.0
  0
LINE
  5
4BE
330
1D
100
AcDbEntity
  8
CSLAYER1
  6
Continuous
100
AcDbLine
 10
261.066676
 20
307.47412
 30
0.0
 11
260.662562
 21
307.662562
 31
0.0
  0
LINE
  5
4BF
330
1D
100
AcDbEntity
  8
CSLAYER1
  6
Continuous
100
AcDbLine
 10
260.662562
 20
307.662562
 30
0.0
 11
260.47412
 21
308.066676
 31
0.0
  0
LINE
  5
4C0
330
1D
100
AcDbEntity
  8
CSLAYER1
  6
Continuous
100
AcDbLine
 10
260.47412
 20
308.066676
 30
0.0
 11
260.454274
 21
309.203664
 31
0.0
  0
ARC
  5
4C1
330
1D
100
AcDbEntity
  8
CSLAYER1
  6
Continuous
100
AcDbCircle
 10
260.0
 20
307.0
 30
0.0
 40
2.25
100
AcDbArc
 50
78.351942
 51
101.648058
  0
LINE
  5
4C2
330
1D
100
AcDbEntity
  8
CSLAYER1
  6
Continuous
100
AcDbLine
 10
259.545726
 20
309.203664
 30
0.0
 11
259.52588
 21
308.066676
 31
0.0
  0
LINE
  5
4C3
330
1D
100
AcDbEntity
  8
CSLAYER1
  6
Continuous
100
AcDbLine
 10
259.52588
 20
308.066676
 30
0.0
 11
259.337438
 21
307.662562
 31
0.0
  0
LINE
  5
4C4
330
1D
100
AcDbEntity
  8
CSLAYER1
  6
Continuous
100
AcDbLine
 10
259.337438
 20
307.662562
 30
0.0
 11
258.933324
 21
307.47412
 31
0.0
  0
LINE
  5
4C5
330
1D
100
AcDbEntity
  8
CSLAYER1
  6
Continuous
100
AcDbLine
 10
258.933324
 20
307.47412
 30
0.0
 11
257.796336
 21
307.454274
 31
0.0
  0
ARC
  5
4C6
330
1D
100
AcDbEntity
  8
CSLAYER1
  6
Continuous
100
AcDbCircle
 10
260.0
 20
307.0
 30
0.0
 40
2.25
100
AcDbArc
 50
168.351942
 51
191.648058
  0
CIRCLE
  5
4C7
330
1D
100
AcDbEntity
  8
CSLAYER1
  6
Continuous
100
AcDbCircle
 10
260.0
 20
307.0
 30
0.0
 40
4.0
  0
LINE
  5
4C8
330
1D
100
AcDbEntity
  8
CSLAYER1
  6
Continuous
100
AcDbLine
 10
278.0
 20
316.381304
 30
0.0
 11
278.0
 21
277.618696
 31
0.0
  0
LINE
  5
4C9
330
1D
100
AcDbEntity
  8
CSLAYER1
  6
Continuous
100
AcDbLine
 10
278.0
 20
277.618696
 30
0.0
 11
286.97737
 21
278.044927
 31
0.0
  0
ARC
  5
4CA
330
1D
100
AcDbEntity
  8
CSLAYER1
  6
Continuous
100
AcDbCircle
 10
285.080372
 20
317.999919
 30
0.0
 40
40.0
100
AcDbArc
 50
272.71827
 51
289.962483
  0
ARC
  5
4CB
330
1D
100
AcDbEntity
  8
CSLAYER1
  6
Continuous
100
AcDbCircle
 10
298.6
 20
280.779231
 30
0.0
 40
0.4
100
AcDbArc
 50
289.962483
 51
0.0
  0
LINE
  5
4CC
330
1D
100
AcDbEntity
  8
CSLAYER1
  6
Continuous
100
AcDbLine
 10
299.0
 20
280.779231
 30
0.0
 11
299.0
 21
313.220769
 31
0.0
  0
ARC
  5
4CD
330
1D
100
AcDbEntity
  8
CSLAYER1
  6
Continuous
100
AcDbCircle
 10
298.6
 20
313.220769
 30
0.0
 40
0.4
100
AcDbArc
 50
0.0
 51
70.037517
  0
ARC
  5
4CE
330
1D
100
AcDbEntity
  8
CSLAYER1
  6
Continuous
100
AcDbCircle
 10
285.080372
 20
276.000081
 30
0.0
 40
40.0
100
AcDbArc
 50
70.037517
 51
87.28173
  0
LINE
  5
4CF
330
1D
100
AcDbEntity
  8
CSLAYER1
  6
Continuous
100
AcDbLine
 10
286.97737
 20
315.955073
 30
0.0
 11
278.0
 21
316.381304
 31
0.0
  0
LINE
  5
4D0
330
1D
100
AcDbEntity
  8
CSLAYER1
  6
Continuous
100
AcDbLine
 10
272.5
 20
336.0
 30
0.0
 11
272.5
 21
186.0
 31
0.0
  0
LINE
  5
4D1
330
1D
100
AcDbEntity
  8
CSLAYER1
  6
Continuous
100
AcDbLine
 10
272.5
 20
186.0
 30
0.0
 11
247.5
 21
186.0
 31
0.0
  0
LINE
  5
4D2
330
1D
100
AcDbEntity
  8
CSLAYER1
  6
Continuous
100
AcDbLine
 10
247.5
 20
186.0
 30
0.0
 11
247.5
 21
336.0
 31
0.0
  0
LINE
  5
4D3
330
1D
100
AcDbEntity
  8
CSLAYER1
  6
Continuous
100
AcDbLine
 10
247.5
 20
336.0
 30
0.0
 11
272.5
 21
336.0
 31
0.0
  0
LINE
  5
4D4
330
1D
100
AcDbEntity
  8
CSLAYER1
  6
Continuous
100
AcDbLine
 10
299.0
 20
311.1
 30
0.0
 11
299.5
 21
311.1
 31
0.0
  0
ARC
  5
4D5
330
1D
100
AcDbEntity
  8
CSLAYER1
  6
Continuous
100
AcDbCircle
 10
299.5
 20
310.6
 30
0.0
 40
0.5
100
AcDbArc
 50
0.0
 51
90.0
  0
LINE
  5
4D6
330
1D
100
AcDbEntity
  8
CSLAYER1
  6
Continuous
100
AcDbLine
 10
300.0
 20
310.6
 30
0.0
 11
300.0
 21
283.4
 31
0.0
  0
ARC
  5
4D7
330
1D
100
AcDbEntity
  8
CSLAYER1
  6
Continuous
100
AcDbCircle
 10
299.5
 20
283.4
 30
0.0
 40
0.5
100
AcDbArc
 50
270.0
 51
0.0
  0
LINE
  5
4D8
330
1D
100
AcDbEntity
  8
CSLAYER1
  6
Continuous
100
AcDbLine
 10
299.5
 20
282.9
 30
0.0
 11
299.0
 21
282.9
 31
0.0
  0
LINE
  5
4D9
330
1D
100
AcDbEntity
  8
CSLAYER1
  6
Continuous
100
AcDbLine
 10
300.0
 20
284.5
 30
0.0
 11
301.5
 21
284.5
 31
0.0
  0
LINE
  5
4DA
330
1D
100
AcDbEntity
  8
CSLAYER1
  6
Continuous
100
AcDbLine
 10
301.5
 20
283.5
 30
0.0
 11
313.498615
 21
283.947076
 31
0.0
  0
ARC
  5
4DB
330
1D
100
AcDbEntity
  8
CSLAYER1
  6
Continuous
100
AcDbCircle
 10
313.442763
 20
285.446036
 30
0.0
 40
1.5
100
AcDbArc
 50
272.133889
 51
359.131742
  0
ARC
  5
4DC
330
1D
100
AcDbEntity
  8
CSLAYER1
  6
Continuous
100
AcDbCircle
 10
-185.0
 20
293.0
 30
0.0
 40
500.0
100
AcDbArc
 50
359.131742
 51
1.846587
  0
ARC
  5
4DD
330
1D
100
AcDbEntity
  8
CSLAYER1
  6
Continuous
100
AcDbCircle
 10
313.241124
 20
309.063386
 30
0.0
 40
1.5
100
AcDbArc
 50
1.846587
 51
87.442403
  0
LINE
  5
4DE
330
1D
100
AcDbEntity
  8
CSLAYER1
  6
Continuous
100
AcDbLine
 10
313.308059
 20
310.561892
 30
0.0
 11
303.5
 21
311.0
 31
0.0
  0
LINE
  5
4DF
330
1D
100
AcDbEntity
  8
CSLAYER1
  6
Continuous
100
AcDbLine
 10
303.5
 20
311.0
 30
0.0
 11
303.5
 21
304.5
 31
0.0
  0
LINE
  5
4E0
330
1D
100
AcDbEntity
  8
CSLAYER1
  6
Continuous
100
AcDbLine
 10
303.5
 20
304.5
 30
0.0
 11
301.5
 21
302.5
 31
0.0
  0
LINE
  5
4E1
330
1D
100
AcDbEntity
  8
CSLAYER1
  6
Continuous
100
AcDbLine
 10
301.5
 20
302.5
 30
0.0
 11
301.5
 21
283.5
 31
0.0
  0
ARC
  5
4E2
330
1D
100
AcDbEntity
  8
CSLAYER1
  6
Continuous
100
AcDbCircle
 10
238.35364
 20
251.496747
 30
0.0
 40
50.0
100
AcDbArc
 50
9.210673
 51
20.707732
  0
LINE
  5
4E3
330
1D
100
AcDbEntity
  8
CSLAYER1
  6
Continuous
100
AcDbLine
 10
287.565701
 20
260.338301
 30
0.0
 11
289.042872
 21
251.694638
 31
0.0
  0
ARC
  5
4E4
330
1D
100
AcDbEntity
  8
CSLAYER1
  6
Continuous
100
AcDbCircle
 10
292.0
 20
252.2
 30
0.0
 40
3.0
100
AcDbArc
 50
189.697953
 51
270.0
  0
LINE
  5
4E5
330
1D
100
AcDbEntity
  8
CSLAYER1
  6
Continuous
100
AcDbLine
 10
292.0
 20
249.2
 30
0.0
 11
294.0
 21
249.2
 31
0.0
  0
ARC
  5
4E6
330
1D
100
AcDbEntity
  8
CSLAYER1
  6
Continuous
100
AcDbCircle
 10
294.0
 20
248.7
 30
0.0
 40
0.5
100
AcDbArc
 50
0.0
 51
90.0
  0
LINE
  5
4E7
330
1D
100
AcDbEntity
  8
CSLAYER1
  6
Continuous
100
AcDbLine
 10
294.5
 20
248.7
 30
0.0
 11
294.5
 21
215.3
 31
0.0
  0
ARC
  5
4E8
330
1D
100
AcDbEntity
  8
CSLAYER1
  6
Continuous
100
AcDbCircle
 10
294.0
 20
215.3
 30
0.0
 40
0.5
100
AcDbArc
 50
270.0
 51
0.0
  0
LINE
  5
4E9
330
1D
100
AcDbEntity
  8
CSLAYER1
  6
Continuous
100
AcDbLine
 10
294.0
 20
214.8
 30
0.0
 11
292.0
 21
214.8
 31
0.0
  0
ARC
  5
4EA
330
1D
100
AcDbEntity
  8
CSLAYER1
  6
Continuous
100
AcDbCircle
 10
292.0
 20
211.8
 30
0.0
 40
3.0
100
AcDbArc
 50
90.0
 51
170.302047
  0
LINE
  5
4EB
330
1D
100
AcDbEntity
  8
CSLAYER1
  6
Continuous
100
AcDbLine
 10
289.042872
 20
212.305362
 30
0.0
 11
287.565701
 21
203.661699
 31
0.0
  0
ARC
  5
4EC
330
1D
100
AcDbEntity
  8
CSLAYER1
  6
Continuous
100
AcDbCircle
 10
238.35364
 20
212.503253
 30
0.0
 40
50.0
100
AcDbArc
 50
339.292268
 51
350.789327
  0
ARC
  5
4ED
330
1D
100
AcDbEntity
  8
CSLAYER1
  6
Continuous
100
AcDbCircle
 10
284.655758
 20
195.0
 30
0.0
 40
0.5
100
AcDbArc
 50
270.0
 51
339.292268
  0
LINE
  5
4EE
330
1D
100
AcDbEntity
  8
CSLAYER1
  6
Continuous
100
AcDbLine
 10
284.655758
 20
194.5
 30
0.0
 11
278.5
 21
194.5
 31
0.0
  0
ARC
  5
4EF
330
1D
100
AcDbEntity
  8
CSLAYER1
  6
Continuous
100
AcDbCircle
 10
278.5
 20
195.0
 30
0.0
 40
0.5
100
AcDbArc
 50
180.0
 51
270.0
  0
LINE
  5
4F0
330
1D
100
AcDbEntity
  8
CSLAYER1
  6
Continuous
100
AcDbLine
 10
278.0
 20
195.0
 30
0.0
 11
278.0
 21
269.0
 31
0.0
  0
ARC
  5
4F1
330
1D
100
AcDbEntity
  8
CSLAYER1
  6
Continuous
100
AcDbCircle
 10
278.5
 20
269.0
 30
0.0
 40
0.5
100
AcDbArc
 50
90.0
 51
180.0
  0
LINE
  5
4F2
330
1D
100
AcDbEntity
  8
CSLAYER1
  6
Continuous
100
AcDbLine
 10
278.5
 20
269.5
 30
0.0
 11
284.655758
 21
269.5
 31
0.0
  0
ARC
  5
4F3
330
1D
100
AcDbEntity
  8
CSLAYER1
  6
Continuous
100
AcDbCircle
 10
284.655758
 20
269.0
 30
0.0
 40
0.5
100
AcDbArc
 50
20.707732
 51
90.0
  0
LINE
  5
4F4
330
1D
100
AcDbEntity
  8
CSLAYER1
  6
Continuous
100
AcDbLine
 10
285.0
 20
267.5
 30
0.0
 11
285.0
 21
196.5
 31
0.0
  0
LINE
  5
4F5
330
1D
100
AcDbEntity
  8
CSLAYER1
  6
Continuous
100
AcDbLine
 10
294.5
 20
216.0
 30
0.0
 11
306.7
 21
216.469231
 31
0.0
  0
LINE
  5
4F6
330
1D
100
AcDbEntity
  8
CSLAYER1
  6
Continuous
100
AcDbLine
 10
306.7
 20
214.5
 30
0.0
 11
306.7
 21
249.5
 31
0.0
  0
ARC
  5
4F7
330
1D
100
AcDbEntity
  8
CSLAYER1
  6
Continuous
100
AcDbCircle
 10
307.0
 20
249.5
 30
0.0
 40
0.3
100
AcDbArc
 50
150.255119
 51
180.0
  0
LINE
  5
4F8
330
1D
100
AcDbEntity
  8
CSLAYER1
  6
Continuous
100
AcDbLine
 10
306.739527
 20
249.648842
 30
0.0
 11
308.640299
 21
252.975193
 31
0.0
  0
LINE
  5
4F9
330
1D
100
AcDbEntity
  8
CSLAYER1
  6
Continuous
100
AcDbLine
 10
308.640299
 20
252.975193
 30
0.0
 11
308.913176
 21
253.049614
 31
0.0
  0
LINE
  5
4FA
330
1D
100
AcDbEntity
  8
CSLAYER1
  6
Continuous
100
AcDbLine
 10
308.913176
 20
253.049614
 30
0.0
 11
309.0
 21
253.0
 31
0.0
  0
ARC
  5
4FB
330
1D
100
AcDbEntity
  8
CSLAYER1
  6
Continuous
100
AcDbCircle
 10
314.0
 20
253.0
 30
0.0
 40
5.0
100
AcDbArc
 50
90.0
 51
180.0
  0
LINE
  5
4FC
330
1D
100
AcDbEntity
  8
CSLAYER1
  6
Continuous
100
AcDbLine
 10
314.0
 20
258.0
 30
0.0
 11
323.0
 21
258.0
 31
0.0
  0
ARC
  5
4FD
330
1D
100
AcDbEntity
  8
CSLAYER1
  6
Continuous
100
AcDbCircle
 10
323.0
 20
159.5
 30
0.0
 40
98.5
100
AcDbArc
 50
75.749967
 51
90.0
  0
ARC
  5
4FE
330
1D
100
AcDbEntity
  8
CSLAYER1
  6
Continuous
100
AcDbCircle
 10
347.0
 20
254.0
 30
0.0
 40
1.0
100
AcDbArc
 50
0.0
 51
75.749967
  0
LINE
  5
4FF
330
1D
100
AcDbEntity
  8
CSLAYER1
  6
Continuous
100
AcDbLine
 10
348.0
 20
254.0
 30
0.0
 11
348.0
 21
210.0
 31
0.0
  0
ARC
  5
500
330
1D
100
AcDbEntity
  8
CSLAYER1
  6
Continuous
100
AcDbCircle
 10
347.0
 20
210.0
 30
0.0
 40
1.0
100
AcDbArc
 50
284.250033
 51
0.0
  0
ARC
  5
501
330
1D
100
AcDbEntity
  8
CSLAYER1
  6
Continuous
100
AcDbCircle
 10
323.0
 20
304.5
 30
0.0
 40
98.5
100
AcDbArc
 50
270.0
 51
284.250033
  0
LINE
  5
502
330
1D
100
AcDbEntity
  8
CSLAYER1
  6
Continuous
100
AcDbLine
 10
323.0
 20
206.0
 30
0.0
 11
314.0
 21
206.0
 31
0.0
  0
ARC
  5
503
330
1D
100
AcDbEntity
  8
CSLAYER1
  6
Continuous
100
AcDbCircle
 10
314.0
 20
211.0
 30
0.0
 40
5.0
100
AcDbArc
 50
180.0
 51
270.0
  0
LINE
  5
504
330
1D
100
AcDbEntity
  8
CSLAYER1
  6
Continuous
100
AcDbLine
 10
309.0
 20
211.0
 30
0.0
 11
309.0
 21
253.0
 31
0.0
  0
LINE
  5
505
330
1D
100
AcDbEntity
  8
CSLAYER1
  6
Continuous
100
AcDbLine
 10
306.7
 20
247.530769
 30
0.0
 11
294.5
 21
248.0
 31
0.0
  0
ARC
  5
506
330
1D
100
AcDbEntity
  8
CSLAYER1
  6
Continuous
100
AcDbCircle
 10
307.0
 20
214.5
 30
0.0
 40
0.3
100
AcDbArc
 50
180.0
 51
209.744881
  0
LINE
  5
507
330
1D
100
AcDbEntity
  8
CSLAYER1
  6
Continuous
100
AcDbLine
 10
306.739527
 20
214.351158
 30
0.0
 11
308.640299
 21
211.024807
 31
0.0
  0
LINE
  5
508
330
1D
100
AcDbEntity
  8
CSLAYER1
  6
Continuous
100
AcDbLine
 10
308.640299
 20
211.024807
 30
0.0
 11
308.913176
 21
210.950386
 31
0.0
  0
LINE
  5
509
330
1D
100
AcDbEntity
  8
CSLAYER1
  6
Continuous
100
AcDbLine
 10
308.913176
 20
210.950386
 30
0.0
 11
309.0
 21
211.0
 31
0.0
  0
LINE
  5
50A
330
1D
100
AcDbEntity
  8
CSLAYER1
  6
Continuous
100
AcDbLine
 10
409.5
 20
240.148353
 30
0.0
 11
409.5
 21
256.851647
 31
0.0
  0
ARC
  5
50B
330
1D
100
AcDbEntity
  8
CSLAYER1
  6
Continuous
100
AcDbCircle
 10
413.946621
 20
251.673985
 30
0.0
 40
6.825
100
AcDbArc
 50
35.542766
 51
130.656272
  0
LINE
  5
50C
330
1D
100
AcDbEntity
  8
CSLAYER1
  6
Continuous
100
AcDbLine
 10
419.5
 20
255.641428
 30
0.0
 11
420.0
 21
255.641428
 31
0.0
  0
LINE
  5
50D
330
1D
100
AcDbEntity
  8
CSLAYER1
  6
Continuous
100
AcDbLine
 10
419.5
 20
255.641428
 30
0.0
 11
419.5
 21
241.358572
 31
0.0
  0
ARC
  5
50E
330
1D
100
AcDbEntity
  8
CSLAYER1
  6
Continuous
100
AcDbCircle
 10
413.946621
 20
245.326015
 30
0.0
 40
6.825
100
AcDbArc
 50
229.343728
 51
324.457234
  0
LINE
  5
50F
330
1D
100
AcDbEntity
  8
CSLAYER1
  6
Continuous
100
AcDbLine
 10
414.5
 20
238.5
 30
0.0
 11
420.0
 21
238.5
 31
0.0
  0
LINE
  5
510
330
1D
100
AcDbEntity
  8
CSLAYER1
  6
Continuous
100
AcDbLine
 10
420.0
 20
241.358572
 30
0.0
 11
419.5
 21
241.358572
 31
0.0
  0
LINE
  5
511
330
1D
100
AcDbEntity
  8
CSLAYER1
  6
Continuous
100
AcDbLine
 10
424.1
 20
237.5
 30
0.0
 11
426.0
 21
237.5
 31
0.0
  0
LINE
  5
512
330
1D
100
AcDbEntity
  8
CSLAYER1
  6
Continuous
100
AcDbLine
 10
426.0
 20
237.5
 30
0.0
 11
426.0
 21
259.5
 31
0.0
  0
LINE
  5
513
330
1D
100
AcDbEntity
  8
CSLAYER1
  6
Continuous
100
AcDbLine
 10
426.0
 20
259.5
 30
0.0
 11
424.1
 21
259.5
 31
0.0
  0
LINE
  5
514
330
1D
100
AcDbEntity
  8
CSLAYER1
  6
Continuous
100
AcDbLine
 10
426.0
 20
258.5
 30
0.0
 11
440.6
 21
258.5
 31
0.0
  0
LINE
  5
515
330
1D
100
AcDbEntity
  8
CSLAYER1
  6
Continuous
100
AcDbLine
 10
440.6
 20
258.5
 30
0.0
 11
440.6
 21
238.5
 31
0.0
  0
LINE
  5
516
330
1D
100
AcDbEntity
  8
CSLAYER1
  6
Continuous
100
AcDbLine
 10
440.6
 20
238.5
 30
0.0
 11
426.0
 21
238.5
 31
0.0
  0
LINE
  5
517
330
1D
100
AcDbEntity
  8
CSLAYER1
  6
Continuous
100
AcDbLine
 10
420.0
 20
258.5
 30
0.0
 11
414.5
 21
258.5
 31
0.0
  0
ARC
  5
518
330
1D
100
AcDbEntity
  8
CSLAYER1
  6
Continuous
100
AcDbCircle
 10
420.1
 20
264.1
 30
0.0
 40
0.6
100
AcDbArc
 50
180.0
 51
260.405932
  0
LINE
  5
519
330
1D
100
AcDbEntity
  8
CSLAYER1
  6
Continuous
100
AcDbLine
 10
419.5
 20
264.1
 30
0.0
 11
419.5
 21
282.9
 31
0.0
  0
ARC
  5
51A
330
1D
100
AcDbEntity
  8
CSLAYER1
  6
Continuous
100
AcDbCircle
 10
420.1
 20
282.9
 30
0.0
 40
0.6
100
AcDbArc
 50
99.594068
 51
180.0
  0
ARC
  5
51B
102
{ACAD_REACTORS
330
EC6
102
}
330
1D
100
AcDbEntity
  8
CSLAYER1
  6
Continuous
100
AcDbCircle
 10
490.0
 20
297.0
 30
0.0
 40
12.0
100
AcDbArc
 50
220.682512
 51
319.317488
  0
LINE
  5
51C
102
{ACAD_REACTORS
330
EC6
102
}
330
1D
100
AcDbEntity
  8
CSLAYER1
  6
Continuous
100
AcDbLine
 10
499.1
 20
289.177596
 30
0.0
 11
499.1
 21
305.6
 31
0.0
  0
LINE
  5
51D
102
{ACAD_REACTORS
330
EC6
102
}
330
1D
100
AcDbEntity
  8
CSLAYER1
  6
Continuous
100
AcDbLine
 10
499.1
 20
305.6
 30
0.0
 11
480.9
 21
305.6
 31
0.0
  0
LINE
  5
51E
102
{ACAD_REACTORS
330
EC6
102
}
330
1D
100
AcDbEntity
  8
CSLAYER1
  6
Continuous
100
AcDbLine
 10
480.9
 20
305.6
 30
0.0
 11
480.9
 21
289.177596
 31
0.0
  0
ARC
  5
51F
102
{ACAD_REACTORS
330
EC6
102
}
330
1D
100
AcDbEntity
  8
CSLAYER1
  6
Continuous
100
AcDbCircle
 10
490.0
 20
293.0
 30
0.0
 40
4.5
100
AcDbArc
 50
164.53399
 51
285.46601
  0
LINE
  5
520
102
{ACAD_REACTORS
330
EC6
102
}
330
1D
100
AcDbEntity
  8
CSLAYER1
  6
Continuous
100
AcDbLine
 10
491.2
 20
288.66295
 30
0.0
 11
491.2
 21
291.8
 31
0.0
  0
LINE
  5
521
102
{ACAD_REACTORS
330
EC6
102
}
330
1D
100
AcDbEntity
  8
CSLAYER1
  6
Continuous
100
AcDbLine
 10
491.2
 20
291.8
 30
0.0
 11
494.33705
 21
291.8
 31
0.0
  0
ARC
  5
522
102
{ACAD_REACTORS
330
EC6
102
}
330
1D
100
AcDbEntity
  8
CSLAYER1
  6
Continuous
100
AcDbCircle
 10
490.0
 20
293.0
 30
0.0
 40
4.5
100
AcDbArc
 50
344.53399
 51
105.46601
  0
LINE
  5
523
102
{ACAD_REACTORS
330
EC6
102
}
330
1D
100
AcDbEntity
  8
CSLAYER1
  6
Continuous
100
AcDbLine
 10
488.8
 20
297.33705
 30
0.0
 11
488.8
 21
294.2
 31
0.0
  0
LINE
  5
524
102
{ACAD_REACTORS
330
EC6
102
}
330
1D
100
AcDbEntity
  8
CSLAYER1
  6
Continuous
100
AcDbLine
 10
488.8
 20
294.2
 30
0.0
 11
485.66295
 21
294.2
 31
0.0
  0
CIRCLE
  5
525
102
{ACAD_REACTORS
330
EC6
102
}
330
1D
100
AcDbEntity
  8
CSLAYER1
  6
Continuous
100
AcDbCircle
 10
490.0
 20
293.0
 30
0.0
 40
6.0
  0
CIRCLE
  5
526
102
{ACAD_REACTORS
330
ECE
102
}
330
1D
100
AcDbEntity
  8
CSLAYER1
  6
Continuous
100
AcDbCircle
 10
490.0
 20
254.0
 30
0.0
 40
3.65
  0
ARC
  5
527
102
{ACAD_REACTORS
330
ECA
102
}
330
1D
100
AcDbEntity
  8
CSLAYER1
  6
Continuous
100
AcDbCircle
 10
490.0
 20
232.0
 30
0.0
 40
11.2
100
AcDbArc
 50
62.335996
 51
297.664004
  0
LINE
  5
528
102
{ACAD_REACTORS
330
ECA
102
}
330
1D
100
AcDbEntity
  8
CSLAYER1
  6
Continuous
100
AcDbLine
 10
495.2
 20
222.080323
 30
0.0
 11
495.2
 21
225.920526
 31
0.0
  0
ARC
  5
529
102
{ACAD_REACTORS
330
ECA
102
}
330
1D
100
AcDbEntity
  8
CSLAYER1
  6
Continuous
100
AcDbCircle
 10
490.0
 20
232.0
 30
0.0
 40
8.0
100
AcDbArc
 50
49.458398
 51
310.541602
  0
LINE
  5
52A
102
{ACAD_REACTORS
330
ECA
102
}
330
1D
100
AcDbEntity
  8
CSLAYER1
  6
Continuous
100
AcDbLine
 10
495.2
 20
238.079474
 30
0.0
 11
495.2
 21
241.919677
 31
0.0
  0
LINE
  5
52B
330
1D
100
AcDbEntity
  8
CSLAYER1
  6
Continuous
100
AcDbLine
 10
493.65
 20
210.0
 30
0.0
 11
493.65
 21
209.0
 31
0.0
  0
LINE
  5
52C
330
1D
100
AcDbEntity
  8
CSLAYER1
  6
Continuous
100
AcDbLine
 10
493.65
 20
209.0
 30
0.0
 11
505.0
 21
209.0
 31
0.0
  0
LINE
  5
52D
102
{ACAD_REACTORS
330
EC6
102
}
330
1D
100
AcDbEntity
  8
CSLAYER1
  6
Continuous
100
AcDbLine
 10
505.0
 20
209.0
 30
0.0
 11
505.0
 21
313.0
 31
0.0
  0
LINE
  5
52E
330
1D
100
AcDbEntity
  8
CSLAYER1
  6
Continuous
100
AcDbLine
 10
505.0
 20
313.0
 30
0.0
 11
424.0
 21
313.0
 31
0.0
  0
LINE
  5
52F
102
{ACAD_REACTORS
330
9E8
102
}
330
1D
100
AcDbEntity
  8
CSLAYER1
  6
Continuous
100
AcDbLine
 10
422.0
 20
321.6
 30
0.0
 11
423.4
 21
323.0
 31
0.0
  0
LINE
  5
530
102
{ACAD_REACTORS
330
9E8
102
}
330
1D
100
AcDbEntity
  8
CSLAYER1
  6
Continuous
100
AcDbLine
 10
423.4
 20
323.0
 30
0.0
 11
424.0
 21
323.0
 31
0.0
  0
LINE
  5
531
330
1D
100
AcDbEntity
  8
CSLAYER1
  6
Continuous
100
AcDbLine
 10
423.4
 20
323.0
 30
0.0
 11
423.4
 21
329.0
 31
0.0
  0
LINE
  5
532
102
{ACAD_REACTORS
330
9E8
102
}
330
1D
100
AcDbEntity
  8
CSLAYER1
  6
Continuous
100
AcDbLine
 10
423.4
 20
329.0
 30
0.0
 11
422.0
 21
330.4
 31
0.0
  0
LINE
  5
533
102
{ACAD_REACTORS
330
9E8
102
}
330
1D
100
AcDbEntity
  8
CSLAYER1
  6
Continuous
100
AcDbLine
 10
423.4
 20
329.0
 30
0.0
 11
424.0
 21
329.0
 31
0.0
  0
LINE
  5
534
102
{ACAD_REACTORS
330
EC6
102
}
330
1D
100
AcDbEntity
  8
CSLAYER1
  6
Continuous
100
AcDbLine
 10
480.9
 20
300.8
 30
0.0
 11
499.1
 21
300.8
 31
0.0
  0
ARC
  5
535
102
{ACAD_REACTORS
330
ECE
102
}
330
1D
100
AcDbEntity
  8
CSLAYER1
  6
Continuous
100
AcDbCircle
 10
490.0
 20
210.0
 30
0.0
 40
3.65
100
AcDbArc
 50
0.0
 51
180.0
  0
LINE
  5
536
330
1D
100
AcDbEntity
  8
CSLAYER1
  6
Continuous
100
AcDbLine
 10
486.35
 20
210.0
 30
0.0
 11
486.35
 21
209.0
 31
0.0
  0
LINE
  5
537
330
1D
100
AcDbEntity
  8
CSLAYER1
  6
Continuous
100
AcDbLine
 10
486.35
 20
209.0
 30
0.0
 11
424.0
 21
209.0
 31
0.0
  0
LINE
  5
538
330
1D
100
AcDbEntity
  8
CSLAYER1
  6
Continuous
100
AcDbLine
 10
301.5
 20
301.5
 30
0.0
 11
300.0
 21
301.5
 31
0.0
  0
LINE
  5
539
330
1D
100
AcDbEntity
  8
CSLAYER1
  6
Continuous
100
AcDbLine
 10
266.0
 20
282.9
 30
0.0
 11
266.0
 21
264.1
 31
0.0
  0
ARC
  5
53A
330
1D
100
AcDbEntity
  8
CSLAYER1
  6
Continuous
100
AcDbCircle
 10
265.4
 20
264.1
 30
0.0
 40
0.6
100
AcDbArc
 50
270.0
 51
0.0
  0
LINE
  5
53B
330
1D
100
AcDbEntity
  8
CSLAYER1
  6
Continuous
100
AcDbLine
 10
265.4
 20
263.5
 30
0.0
 11
254.6
 21
263.5
 31
0.0
  0
ARC
  5
53C
330
1D
100
AcDbEntity
  8
CSLAYER1
  6
Continuous
100
AcDbCircle
 10
254.6
 20
264.1
 30
0.0
 40
0.6
100
AcDbArc
 50
180.0
 51
270.0
  0
LINE
  5
53D
330
1D
100
AcDbEntity
  8
CSLAYER1
  6
Continuous
100
AcDbLine
 10
254.0
 20
264.1
 30
0.0
 11
254.0
 21
282.9
 31
0.0
  0
ARC
  5
53E
330
1D
100
AcDbEntity
  8
CSLAYER1
  6
Continuous
100
AcDbCircle
 10
254.6
 20
282.9
 30
0.0
 40
0.6
100
AcDbArc
 50
90.0
 51
180.0
  0
LINE
  5
53F
330
1D
100
AcDbEntity
  8
CSLAYER1
  6
Continuous
100
AcDbLine
 10
254.6
 20
283.5
 30
0.0
 11
265.4
 21
283.5
 31
0.0
  0
ARC
  5
540
330
1D
100
AcDbEntity
  8
CSLAYER1
  6
Continuous
100
AcDbCircle
 10
265.4
 20
282.9
 30
0.0
 40
0.6
100
AcDbArc
 50
0.0
 51
90.0
  0
ARC
  5
541
330
1D
100
AcDbEntity
  8
CSLAYER1
  6
Continuous
100
AcDbCircle
 10
260.0
 20
248.5
 30
0.0
 40
10.0
100
AcDbArc
 50
45.572996
 51
134.427004
  0
LINE
  5
542
330
1D
100
AcDbEntity
  8
CSLAYER1
  6
Continuous
100
AcDbLine
 10
253.0
 20
255.641428
 30
0.0
 11
253.0
 21
241.358572
 31
0.0
  0
ARC
  5
543
330
1D
100
AcDbEntity
  8
CSLAYER1
  6
Continuous
100
AcDbCircle
 10
260.0
 20
248.5
 30
0.0
 40
10.0
100
AcDbArc
 50
225.572996
 51
314.427004
  0
LINE
  5
544
330
1D
100
AcDbEntity
  8
CSLAYER1
  6
Continuous
100
AcDbLine
 10
267.0
 20
241.358572
 30
0.0
 11
267.0
 21
255.641428
 31
0.0
  0
LINE
  5
545
330
1D
100
AcDbEntity
  8
CSLAYER1
  6
Continuous
100
AcDbLine
 10
254.5
 20
256.851647
 30
0.0
 11
254.5
 21
240.148353
 31
0.0
  0
ARC
  5
546
330
1D
100
AcDbEntity
  8
CSLAYER1
  6
Continuous
100
AcDbCircle
 10
260.0
 20
215.0
 30
0.0
 40
2.25
100
AcDbArc
 50
78.351942
 51
101.648058
  0
LINE
  5
547
330
1D
100
AcDbEntity
  8
CSLAYER1
  6
Continuous
100
AcDbLine
 10
260.454274
 20
217.203664
 30
0.0
 11
260.47412
 21
216.066676
 31
0.0
  0
LINE
  5
548
330
1D
100
AcDbEntity
  8
CSLAYER1
  6
Continuous
100
AcDbLine
 10
260.47412
 20
216.066676
 30
0.0
 11
260.662562
 21
215.662562
 31
0.0
  0
LINE
  5
549
330
1D
100
AcDbEntity
  8
CSLAYER1
  6
Continuous
100
AcDbLine
 10
260.662562
 20
215.662562
 30
0.0
 11
261.066676
 21
215.47412
 31
0.0
  0
LINE
  5
54A
330
1D
100
AcDbEntity
  8
CSLAYER1
  6
Continuous
100
AcDbLine
 10
261.066676
 20
215.47412
 30
0.0
 11
262.203664
 21
215.454274
 31
0.0
  0
ARC
  5
54B
330
1D
100
AcDbEntity
  8
CSLAYER1
  6
Continuous
100
AcDbCircle
 10
260.0
 20
215.0
 30
0.0
 40
2.25
100
AcDbArc
 50
348.351942
 51
11.648058
  0
LINE
  5
54C
330
1D
100
AcDbEntity
  8
CSLAYER1
  6
Continuous
100
AcDbLine
 10
262.203664
 20
214.545726
 30
0.0
 11
261.066676
 21
214.52588
 31
0.0
  0
LINE
  5
54D
330
1D
100
AcDbEntity
  8
CSLAYER1
  6
Continuous
100
AcDbLine
 10
261.066676
 20
214.52588
 30
0.0
 11
260.662562
 21
214.337438
 31
0.0
  0
LINE
  5
54E
330
1D
100
AcDbEntity
  8
CSLAYER1
  6
Continuous
100
AcDbLine
 10
260.662562
 20
214.337438
 30
0.0
 11
260.47412
 21
213.933324
 31
0.0
  0
LINE
  5
54F
330
1D
100
AcDbEntity
  8
CSLAYER1
  6
Continuous
100
AcDbLine
 10
260.47412
 20
213.933324
 30
0.0
 11
260.454274
 21
212.796336
 31
0.0
  0
ARC
  5
550
330
1D
100
AcDbEntity
  8
CSLAYER1
  6
Continuous
100
AcDbCircle
 10
260.0
 20
215.0
 30
0.0
 40
2.25
100
AcDbArc
 50
258.351942
 51
281.648058
  0
LINE
  5
551
330
1D
100
AcDbEntity
  8
CSLAYER1
  6
Continuous
100
AcDbLine
 10
259.545726
 20
212.796336
 30
0.0
 11
259.52588
 21
213.933324
 31
0.0
  0
LINE
  5
552
330
1D
100
AcDbEntity
  8
CSLAYER1
  6
Continuous
100
AcDbLine
 10
259.52588
 20
213.933324
 30
0.0
 11
259.337438
 21
214.337438
 31
0.0
  0
LINE
  5
553
330
1D
100
AcDbEntity
  8
CSLAYER1
  6
Continuous
100
AcDbLine
 10
259.337438
 20
214.337438
 30
0.0
 11
258.933324
 21
214.52588
 31
0.0
  0
LINE
  5
554
330
1D
100
AcDbEntity
  8
CSLAYER1
  6
Continuous
100
AcDbLine
 10
258.933324
 20
214.52588
 30
0.0
 11
257.796336
 21
214.545726
 31
0.0
  0
ARC
  5
555
330
1D
100
AcDbEntity
  8
CSLAYER1
  6
Continuous
100
AcDbCircle
 10
260.0
 20
215.0
 30
0.0
 40
2.25
100
AcDbArc
 50
168.351942
 51
191.648058
  0
LINE
  5
556
330
1D
100
AcDbEntity
  8
CSLAYER1
  6
Continuous
100
AcDbLine
 10
257.796336
 20
215.454274
 30
0.0
 11
258.933324
 21
215.47412
 31
0.0
  0
LINE
  5
557
330
1D
100
AcDbEntity
  8
CSLAYER1
  6
Continuous
100
AcDbLine
 10
258.933324
 20
215.47412
 30
0.0
 11
259.337438
 21
215.662562
 31
0.0
  0
LINE
  5
558
330
1D
100
AcDbEntity
  8
CSLAYER1
  6
Continuous
100
AcDbLine
 10
259.337438
 20
215.662562
 30
0.0
 11
259.52588
 21
216.066676
 31
0.0
  0
LINE
  5
559
330
1D
100
AcDbEntity
  8
CSLAYER1
  6
Continuous
100
AcDbLine
 10
259.52588
 20
216.066676
 30
0.0
 11
259.545726
 21
217.203664
 31
0.0
  0
CIRCLE
  5
55A
330
1D
100
AcDbEntity
  8
CSLAYER1
  6
Continuous
100
AcDbCircle
 10
260.0
 20
215.0
 30
0.0
 40
4.0
  0
LINE
  5
55B
330
1D
100
AcDbEntity
  8
CSLAYER1
  6
Continuous
100
AcDbLine
 10
225.5
 20
216.0
 30
0.0
 11
213.3
 21
216.469231
 31
0.0
  0
LINE
  5
55C
330
1D
100
AcDbEntity
  8
CSLAYER1
  6
Continuous
100
AcDbLine
 10
213.3
 20
214.5
 30
0.0
 11
213.3
 21
249.5
 31
0.0
  0
ARC
  5
55D
330
1D
100
AcDbEntity
  8
CSLAYER1
  6
Continuous
100
AcDbCircle
 10
213.0
 20
249.5
 30
0.0
 40
0.3
100
AcDbArc
 50
0.0
 51
29.744881
  0
LINE
  5
55E
330
1D
100
AcDbEntity
  8
CSLAYER1
  6
Continuous
100
AcDbLine
 10
213.260473
 20
249.648842
 30
0.0
 11
211.359701
 21
252.975193
 31
0.0
  0
LINE
  5
55F
330
1D
100
AcDbEntity
  8
CSLAYER1
  6
Continuous
100
AcDbLine
 10
211.359701
 20
252.975193
 30
0.0
 11
211.086824
 21
253.049614
 31
0.0
  0
LINE
  5
560
330
1D
100
AcDbEntity
  8
CSLAYER1
  6
Continuous
100
AcDbLine
 10
211.086824
 20
253.049614
 30
0.0
 11
211.0
 21
253.0
 31
0.0
  0
ARC
  5
561
330
1D
100
AcDbEntity
  8
CSLAYER1
  6
Continuous
100
AcDbCircle
 10
206.0
 20
253.0
 30
0.0
 40
5.0
100
AcDbArc
 50
0.0
 51
90.0
  0
LINE
  5
562
330
1D
100
AcDbEntity
  8
CSLAYER1
  6
Continuous
100
AcDbLine
 10
206.0
 20
258.0
 30
0.0
 11
197.0
 21
258.0
 31
0.0
  0
ARC
  5
563
330
1D
100
AcDbEntity
  8
CSLAYER1
  6
Continuous
100
AcDbCircle
 10
197.0
 20
159.5
 30
0.0
 40
98.5
100
AcDbArc
 50
90.0
 51
104.250033
  0
ARC
  5
564
330
1D
100
AcDbEntity
  8
CSLAYER1
  6
Continuous
100
AcDbCircle
 10
173.0
 20
254.0
 30
0.0
 40
1.0
100
AcDbArc
 50
104.250033
 51
180.0
  0
LINE
  5
565
330
1D
100
AcDbEntity
  8
CSLAYER1
  6
Continuous
100
AcDbLine
 10
172.0
 20
254.0
 30
0.0
 11
172.0
 21
210.0
 31
0.0
  0
ARC
  5
566
330
1D
100
AcDbEntity
  8
CSLAYER1
  6
Continuous
100
AcDbCircle
 10
173.0
 20
210.0
 30
0.0
 40
1.0
100
AcDbArc
 50
180.0
 51
255.749967
  0
ARC
  5
567
330
1D
100
AcDbEntity
  8
CSLAYER1
  6
Continuous
100
AcDbCircle
 10
197.0
 20
304.5
 30
0.0
 40
98.5
100
AcDbArc
 50
255.749967
 51
270.0
  0
LINE
  5
568
330
1D
100
AcDbEntity
  8
CSLAYER1
  6
Continuous
100
AcDbLine
 10
197.0
 20
206.0
 30
0.0
 11
206.0
 21
206.0
 31
0.0
  0
ARC
  5
569
330
1D
100
AcDbEntity
  8
CSLAYER1
  6
Continuous
100
AcDbCircle
 10
206.0
 20
211.0
 30
0.0
 40
5.0
100
AcDbArc
 50
270.0
 51
0.0
  0
LINE
  5
56A
330
1D
100
AcDbEntity
  8
CSLAYER1
  6
Continuous
100
AcDbLine
 10
211.0
 20
211.0
 30
0.0
 11
211.0
 21
253.0
 31
0.0
  0
LINE
  5
56B
330
1D
100
AcDbEntity
  8
CSLAYER1
  6
Continuous
100
AcDbLine
 10
213.3
 20
247.530769
 30
0.0
 11
225.5
 21
248.0
 31
0.0
  0
ARC
  5
56C
330
1D
100
AcDbEntity
  8
CSLAYER1
  6
Continuous
100
AcDbCircle
 10
213.0
 20
214.5
 30
0.0
 40
0.3
100
AcDbArc
 50
330.255119
 51
0.0
  0
LINE
  5
56D
330
1D
100
AcDbEntity
  8
CSLAYER1
  6
Continuous
100
AcDbLine
 10
213.260473
 20
214.351158
 30
0.0
 11
211.359701
 21
211.024807
 31
0.0
  0
LINE
  5
56E
330
1D
100
AcDbEntity
  8
CSLAYER1
  6
Continuous
100
AcDbLine
 10
211.359701
 20
211.024807
 30
0.0
 11
211.086824
 21
210.950386
 31
0.0
  0
LINE
  5
56F
330
1D
100
AcDbEntity
  8
CSLAYER1
  6
Continuous
100
AcDbLine
 10
211.086824
 20
210.950386
 30
0.0
 11
211.0
 21
211.0
 31
0.0
  0
LINE
  5
570
330
1D
100
AcDbEntity
  8
CSLAYER1
  6
Continuous
100
AcDbLine
 10
219.92
 20
285.85
 30
0.0
 11
220.0
 21
285.85
 31
0.0
  0
LINE
  5
5A7
330
1D
100
AcDbEntity
  8
CSLAYER10
  6
PHANTOM
100
AcDbLine
 10
403.8
 20
115.0
 30
0.0
 11
420.0
 21
115.0
 31
0.0
  0
LINE
  5
5A8
330
1D
100
AcDbEntity
  8
CSLAYER10
  6
PHANTOM
100
AcDbLine
 10
420.0
 20
127.0
 30
0.0
 11
403.8
 21
127.0
 31
0.0
  0
ARC
  5
5A9
330
1D
100
AcDbEntity
  8
CSLAYER10
  6
PHANTOM
100
AcDbCircle
 10
403.8
 20
126.2
 30
0.0
 40
0.8
100
AcDbArc
 50
90.0
 51
180.0
  0
LINE
  5
5AA
330
1D
100
AcDbEntity
  8
CSLAYER10
  6
PHANTOM
100
AcDbLine
 10
403.0
 20
126.2
 30
0.0
 11
403.0
 21
115.8
 31
0.0
  0
ARC
  5
5AB
330
1D
100
AcDbEntity
  8
CSLAYER10
  6
PHANTOM
100
AcDbCircle
 10
403.8
 20
115.8
 30
0.0
 40
0.8
100
AcDbArc
 50
180.0
 51
270.0
  0
LINE
  5
5AC
330
1D
100
AcDbEntity
  8
CSLAYER10
  6
Continuous
100
AcDbLine
 10
396.154753
 20
121.0
 30
0.0
 11
512.529156
 21
121.0
 31
0.0
  0
LINE
  5
5AD
330
1D
100
AcDbEntity
  8
CSLAYER10
  6
Continuous
100
AcDbLine
 10
490.0
 20
132.041386
 30
0.0
 11
490.0
 21
109.40263
 31
0.0
  0
CIRCLE
  5
5AE
102
{ACAD_REACTORS
330
ECE
102
}
330
1D
100
AcDbEntity
  8
CSLAYER10
  6
PHANTOM
100
AcDbCircle
 10
490.0
 20
210.0
 30
0.0
 40
5.0
  0
CIRCLE
  5
5AF
102
{ACAD_REACTORS
330
ECA
102
}
330
1D
100
AcDbEntity
  8
CSLAYER10
  6
PHANTOM
100
AcDbCircle
 10
490.0
 20
232.0
 30
0.0
 40
15.0
  0
LINE
  5
5B0
102
{ACAD_REACTORS
330
ECA
102
}
330
1D
100
AcDbEntity
  8
CSLAYER10
  6
Continuous
100
AcDbLine
 10
509.977236
 20
232.0
 30
0.0
 11
467.945697
 21
232.0
 31
0.0
  0
LINE
  5
5B1
330
1D
100
AcDbEntity
  8
CSLAYER10
  6
Continuous
100
AcDbLine
 10
448.421799
 20
248.5
 30
0.0
 11
396.412012
 21
248.5
 31
0.0
  0
LINE
  5
5B2
330
1D
100
AcDbEntity
  8
CSLAYER10
  6
PHANTOM
100
AcDbLine
 10
403.6
 20
263.5
 30
0.0
 11
420.0
 21
263.5
 31
0.0
  0
LINE
  5
5B3
330
1D
100
AcDbEntity
  8
CSLAYER10
  6
Continuous
100
AcDbLine
 10
427.5
 20
273.5
 30
0.0
 11
394.0
 21
273.5
 31
0.0
  0
ARC
  5
5B4
330
1D
100
AcDbEntity
  8
CSLAYER10
  6
PHANTOM
100
AcDbCircle
 10
403.6
 20
264.1
 30
0.0
 40
0.6
100
AcDbArc
 50
180.0
 51
270.0
  0
LINE
  5
5B5
330
1D
100
AcDbEntity
  8
CSLAYER10
  6
PHANTOM
100
AcDbLine
 10
403.0
 20
264.1
 30
0.0
 11
403.0
 21
282.9
 31
0.0
  0
ARC
  5
5B6
330
1D
100
AcDbEntity
  8
CSLAYER10
  6
PHANTOM
100
AcDbCircle
 10
403.6
 20
282.9
 30
0.0
 40
0.6
100
AcDbArc
 50
90.0
 51
180.0
  0
LINE
  5
5B7
330
1D
100
AcDbEntity
  8
CSLAYER10
  6
PHANTOM
100
AcDbLine
 10
403.6
 20
283.5
 30
0.0
 11
420.0
 21
283.5
 31
0.0
  0
LINE
  5
5B8
102
{ACAD_REACTORS
330
EC6
102
}
330
1D
100
AcDbEntity
  8
CSLAYER10
  6
Continuous
100
AcDbLine
 10
482.2
 20
293.0
 30
0.0
 11
497.8
 21
293.0
 31
0.0
  0
CIRCLE
  5
5B9
102
{ACAD_REACTORS
330
EC6
102
}
330
1D
100
AcDbEntity
  8
CSLAYER10
  6
PHANTOM
100
AcDbCircle
 10
490.0
 20
297.0
 30
0.0
 40
16.0
  0
CIRCLE
  5
5BA
102
{ACAD_REACTORS
330
ECE
102
}
330
1D
100
AcDbEntity
  8
CSLAYER10
  6
PHANTOM
100
AcDbCircle
 10
490.0
 20
254.0
 30
0.0
 40
5.0
  0
LINE
  5
5BB
330
1D
100
AcDbEntity
  8
CSLAYER10
  6
Continuous
100
AcDbLine
 10
353.0
 20
232.0
 30
0.0
 11
273.402972
 21
232.0
 31
0.0
  0
LINE
  5
5BC
330
1D
100
AcDbEntity
  8
CSLAYER10
  6
Continuous
100
AcDbLine
 10
260.0
 20
232.5
 30
0.0
 11
260.0
 21
292.5
 31
0.0
  0
LINE
  5
5BD
330
1D
100
AcDbEntity
  8
CSLAYER10
  6
Continuous
100
AcDbLine
 10
245.0
 20
297.0
 30
0.0
 11
215.0
 21
297.0
 31
0.0
  0
LINE
  5
5BE
330
1D
100
AcDbEntity
  8
CSLAYER10
  6
Continuous
 48
0.3
100
AcDbLine
 10
215.8
 20
293.0
 30
0.0
 11
226.8
 21
293.0
 31
0.0
  0
LINE
  5
5BF
330
1D
100
AcDbEntity
  8
CSLAYER10
  6
Continuous
 48
0.3
100
AcDbLine
 10
250.604257
 20
273.5
 30
0.0
 11
269.136688
 21
273.5
 31
0.0
  0
LINE
  5
5C0
330
1D
100
AcDbEntity
  8
CSLAYER10
  6
Continuous
100
AcDbLine
 10
275.0
 20
297.0
 30
0.0
 11
320.1
 21
297.0
 31
0.0
  0
LINE
  5
5C1
330
1D
100
AcDbEntity
  8
CSLAYER10
  6
Continuous
 48
0.3
100
AcDbLine
 10
320.302381
 20
293.0
 30
0.0
 11
292.202381
 21
293.0
 31
0.0
  0
LINE
  5
5C2
330
1D
100
AcDbEntity
  8
CSLAYER10
  6
Continuous
 48
0.3
100
AcDbLine
 10
265.525
 20
307.0
 30
0.0
 11
254.475
 21
307.0
 31
0.0
  0
LINE
  5
5C3
330
1D
100
AcDbEntity
  8
CSLAYER10
  6
Continuous
 48
0.3
100
AcDbLine
 10
249.986509
 20
248.5
 30
0.0
 11
269.754435
 21
248.5
 31
0.0
  0
LINE
  5
5C4
330
1D
100
AcDbEntity
  8
CSLAYER10
  6
Continuous
100
AcDbLine
 10
260.0
 20
225.5
 30
0.0
 11
260.0
 21
181.0
 31
0.0
  0
LINE
  5
5C5
330
1D
100
AcDbEntity
  8
CSLAYER10
  6
Continuous
100
AcDbLine
 10
278.0
 20
194.5
 30
0.0
 11
278.0
 21
163.0
 31
0.0
  0
LINE
  5
5C8
330
1D
100
AcDbEntity
  8
CSLAYER10
  6
Continuous
100
AcDbLine
 10
100.0
 20
161.120635
 30
0.0
 11
100.0
 21
188.341915
 31
0.0
  0
LINE
  5
5C9
330
1D
100
AcDbEntity
  8
CSLAYER10
  6
Continuous
100
AcDbLine
 10
100.0
 20
207.200397
 30
0.0
 11
100.0
 21
244.0
 31
0.0
  0
LINE
  5
5CA
330
1D
100
AcDbEntity
  8
CSLAYER10
  6
Continuous
100
AcDbLine
 10
100.0
 20
251.0
 30
0.0
 11
100.0
 21
313.209467
 31
0.0
  0
LINE
  5
5CB
330
1D
100
AcDbEntity
  8
CSLAYER10
  6
Continuous
 48
0.1
100
AcDbLine
 10
51.247952
 20
300.0
 30
0.0
 11
46.438884
 21
300.0
 31
0.0
  0
LINE
  5
5CC
330
1D
100
AcDbEntity
  8
CSLAYER10
  6
Continuous
100
AcDbLine
 10
56.256233
 20
260.0
 30
0.0
 11
24.636606
 21
260.0
 31
0.0
  0
LINE
  5
5CD
330
1D
100
AcDbEntity
  8
CSLAYER10
  6
Continuous
 48
0.1
100
AcDbLine
 10
46.438884
 20
220.0
 30
0.0
 11
51.247952
 21
220.0
 31
0.0
  0
LINE
  5
5CE
330
1D
100
AcDbEntity
  8
CSLAYER10
  6
Continuous
100
AcDbLine
 10
77.290028619191
 20
260.0
 30
0.0
 11
122.709971380809
 21
260.0
 31
0.0
  0
LINE
  5
5CF
330
1D
100
AcDbEntity
  8
CSLAYER10
  6
DASHED
100
AcDbLine
 10
110.5
 20
291.539409
 30
0.0
 11
110.5
 21
228.0
 31
0.0
  0
LINE
  5
5D0
330
1D
100
AcDbEntity
  8
CSLAYER10
  6
Continuous
100
AcDbLine
 10
120.01717
 20
224.282856
 30
0.0
 11
120.01717
 21
296.992267
 31
0.0
  0
LINE
  5
5D1
330
1D
100
AcDbEntity
  8
CSLAYER10
  6
Continuous
100
AcDbLine
 10
167.584516
 20
232.0
 30
0.0
 11
214.846952
 21
232.0
 31
0.0
  0
LINE
  5
5D2
330
1D
100
AcDbEntity
  8
CSLAYER10
  6
Continuous
100
AcDbLine
 10
222.486997
 20
232.0
 30
0.0
 11
245.692198
 21
232.0
 31
0.0
  0
LINE
  5
5D3
330
1D
100
AcDbEntity
  8
CSLAYER10
  6
Continuous
 48
0.3
100
AcDbLine
 10
254.8
 20
215.0
 30
0.0
 11
265.2
 21
215.0
 31
0.0
  0
TEXT
  5
5E6
330
1D
100
AcDbEntity
  8
CSLAYER10
100
AcDbText
 10
508.65
 20
14.45
 30
0.0
 40
2.7
  1
 
 41
1.666666666667
  7
FX_FONT
 72
     5
 11
511.35
 21
14.45
 31
0.0
100
AcDbText
  0
TEXT
  5
650
330
1D
100
AcDbEntity
  8
CSLAYER10
100
AcDbText
 10
253.5
 20
158.0
 30
0.0
 40
4.0
  1
扉厚
 41
1.5234375
  7
FX_FONT
 72
     5
 11
266.5
 21
158.0
 31
0.0
100
AcDbText
  0
TEXT
  5
786
330
1D
100
AcDbEntity
  8
CSLAYER10
100
AcDbText
 10
257.0
 20
175.0
 30
0.0
 40
4.0
  1
25
 41
0.818181818182
  7
FX_FONT
 72
     5
 11
263.0
 21
175.0
 31
0.0
100
AcDbText
  0
LINE
  5
787
330
1D
100
AcDbEntity
  8
CSLAYER10
  6
Continuous
100
AcDbLine
 10
247.5
 20
185.0
 30
0.0
 11
247.5
 21
173.0
 31
0.0
  0
LINE
  5
78B
330
1D
100
AcDbEntity
  8
CSLAYER10
  6
Continuous
100
AcDbLine
 10
247.5
 20
174.0
 30
0.0
 11
249.431852
 21
173.482362
 31
0.0
  0
LINE
  5
78C
330
1D
100
AcDbEntity
  8
CSLAYER10
  6
Continuous
100
AcDbLine
 10
272.5
 20
174.0
 30
0.0
 11
270.568148
 21
174.517638
 31
0.0
  0
LINE
  5
78D
330
1D
100
AcDbEntity
  8
CSLAYER10
  6
Continuous
100
AcDbLine
 10
272.5
 20
174.0
 30
0.0
 11
270.568148
 21
173.482362
 31
0.0
  0
TEXT
  5
78E
330
1D
100
AcDbEntity
  8
CSLAYER10
100
AcDbText
 10
230.25
 20
327.999969
 30
0.0
 40
4.0
  1
H
 41
0.75
  7
FX_FONT
 72
     5
 11
232.75
 21
327.999969
 31
0.0
100
AcDbText
  0
LINE
  5
78F
330
1D
100
AcDbEntity
  8
CSLAYER10
  6
Continuous
100
AcDbLine
 10
221.0
 20
314.220769
 30
0.0
 11
221.0
 21
328.0
 31
0.0
  0
LINE
  5
790
330
1D
100
AcDbEntity
  8
CSLAYER10
  6
Continuous
100
AcDbLine
 10
242.0
 20
328.0
 30
0.0
 11
242.0
 21
317.381304
 31
0.0
  0
LINE
  5
791
330
1D
100
AcDbEntity
  8
CSLAYER10
  6
Continuous
100
AcDbLine
 10
221.0
 20
327.0
 30
0.0
 11
242.0
 21
327.0
 31
0.0
  0
LINE
  5
792
330
1D
100
AcDbEntity
  8
CSLAYER10
  6
Continuous
100
AcDbLine
 10
221.0
 20
327.0
 30
0.0
 11
222.931852
 21
327.517638
 31
0.0
  0
LINE
  5
793
330
1D
100
AcDbEntity
  8
CSLAYER10
  6
Continuous
100
AcDbLine
 10
221.0
 20
327.0
 30
0.0
 11
222.931852
 21
326.482362
 31
0.0
  0
LINE
  5
794
330
1D
100
AcDbEntity
  8
CSLAYER10
  6
Continuous
100
AcDbLine
 10
242.0
 20
327.0
 30
0.0
 11
240.068148
 21
327.517638
 31
0.0
  0
LINE
  5
795
330
1D
100
AcDbEntity
  8
CSLAYER10
  6
Continuous
100
AcDbLine
 10
242.0
 20
327.0
 30
0.0
 11
240.068148
 21
326.482362
 31
0.0
  0
TEXT
  5
796
330
1D
100
AcDbEntity
  8
CSLAYER10
100
AcDbText
 10
287.25
 20
327.999969
 30
0.0
 40
4.0
  1
H
 41
0.75
  7
FX_FONT
 72
     5
 11
289.75
 21
327.999969
 31
0.0
100
AcDbText
  0
LINE
  5
797
330
1D
100
AcDbEntity
  8
CSLAYER10
  6
Continuous
100
AcDbLine
 10
278.0
 20
328.0
 30
0.0
 11
278.0
 21
317.381304
 31
0.0
  0
LINE
  5
798
330
1D
100
AcDbEntity
  8
CSLAYER10
  6
Continuous
100
AcDbLine
 10
299.0
 20
314.220769
 30
0.0
 11
299.0
 21
328.0
 31
0.0
  0
LINE
  5
799
330
1D
100
AcDbEntity
  8
CSLAYER10
  6
Continuous
100
AcDbLine
 10
278.0
 20
327.0
 30
0.0
 11
299.0
 21
327.0
 31
0.0
  0
LINE
  5
79A
330
1D
100
AcDbEntity
  8
CSLAYER10
  6
Continuous
100
AcDbLine
 10
278.0
 20
327.0
 30
0.0
 11
279.931852
 21
327.517638
 31
0.0
  0
LINE
  5
79B
330
1D
100
AcDbEntity
  8
CSLAYER10
  6
Continuous
100
AcDbLine
 10
278.0
 20
327.0
 30
0.0
 11
279.931852
 21
326.482362
 31
0.0
  0
LINE
  5
79C
330
1D
100
AcDbEntity
  8
CSLAYER10
  6
Continuous
100
AcDbLine
 10
299.0
 20
327.0
 30
0.0
 11
297.068148
 21
327.517638
 31
0.0
  0
LINE
  5
79D
330
1D
100
AcDbEntity
  8
CSLAYER10
  6
Continuous
100
AcDbLine
 10
299.0
 20
327.0
 30
0.0
 11
297.068148
 21
326.482362
 31
0.0
  0
TEXT
  5
79E
330
1D
100
AcDbEntity
  8
CSLAYER10
100
AcDbText
 10
207.0
 20
295.75
 30
0.0
 40
4.0
  1
D
 50
90.0
 41
0.75
  7
FX_FONT
 72
     5
 11
207.0
 21
298.25
 31
0.0
100
AcDbText
  0
LINE
  5
79F
330
1D
100
AcDbEntity
  8
CSLAYER10
  6
Continuous
100
AcDbLine
 10
241.0
 20
277.618696
 30
0.0
 11
207.0
 21
277.618696
 31
0.0
  0
LINE
  5
7A0
330
1D
100
AcDbEntity
  8
CSLAYER10
  6
Continuous
100
AcDbLine
 10
241.0
 20
316.381304
 30
0.0
 11
207.0
 21
316.381304
 31
0.0
  0
LINE
  5
7A1
330
1D
100
AcDbEntity
  8
CSLAYER10
  6
Continuous
100
AcDbLine
 10
208.0
 20
277.618696
 30
0.0
 11
208.0
 21
316.381304
 31
0.0
  0
LINE
  5
7A2
330
1D
100
AcDbEntity
  8
CSLAYER10
  6
Continuous
100
AcDbLine
 10
208.0
 20
277.618696
 30
0.0
 11
207.482362
 21
279.550548
 31
0.0
  0
LINE
  5
7A3
330
1D
100
AcDbEntity
  8
CSLAYER10
  6
Continuous
100
AcDbLine
 10
208.0
 20
277.618696
 30
0.0
 11
208.517638
 21
279.550548
 31
0.0
  0
LINE
  5
7A4
330
1D
100
AcDbEntity
  8
CSLAYER10
  6
Continuous
100
AcDbLine
 10
208.0
 20
316.381304
 30
0.0
 11
207.482362
 21
314.449452
 31
0.0
  0
LINE
  5
7A5
330
1D
100
AcDbEntity
  8
CSLAYER10
  6
Continuous
100
AcDbLine
 10
208.0
 20
316.381304
 30
0.0
 11
208.517638
 21
314.449452
 31
0.0
  0
TEXT
  5
7A6
330
1D
100
AcDbEntity
  8
CSLAYER10
100
AcDbText
 10
89.952995
 20
321.0
 30
0.0
 40
4.0
  1
2-4mmネジ用穴
 41
0.708041958042
  7
FX_FONT
 72
     5
 11
116.952995
 21
321.0
 31
0.0
100
AcDbText
  0
LINE
  5
7A7
330
1D
100
AcDbEntity
  8
CSLAYER10
  6
Continuous
100
AcDbLine
 10
97.875
 20
303.680608
 30
0.0
 11
88.452995
 21
320.0
 31
0.0
  0
LINE
  5
7A8
330
1D
100
AcDbEntity
  8
CSLAYER10
  6
Continuous
100
AcDbLine
 10
97.875
 20
303.680608
 30
0.0
 11
96.460786
 21
305.094822
 31
0.0
  0
LINE
  5
7A9
330
1D
100
AcDbEntity
  8
CSLAYER10
  6
Continuous
100
AcDbLine
 10
97.875
 20
303.680608
 30
0.0
 11
97.357362
 21
305.61246
 31
0.0
  0
LINE
  5
7AA
330
1D
100
AcDbEntity
  8
CSLAYER10
  6
Continuous
100
AcDbLine
 10
88.452995
 20
320.0
 30
0.0
 11
118.452995
 21
320.0
 31
0.0
  0
TEXT
  5
7AB
330
1D
100
AcDbEntity
  8
CSLAYER10
100
AcDbText
 10
52.25
 20
201.0
 30
0.0
 40
4.0
  1
2.5
 41
0.661764705882
  7
FX_FONT
 72
     5
 11
59.75
 21
201.0
 31
0.0
100
AcDbText
  0
LINE
  5
7AD
330
1D
100
AcDbEntity
  8
CSLAYER10
  6
Continuous
100
AcDbLine
 10
47.5
 20
217.0
 30
0.0
 11
47.5
 21
199.0
 31
0.0
  0
LINE
  5
7AF
330
1D
100
AcDbEntity
  8
CSLAYER10
  6
Continuous
100
AcDbLine
 10
42.5
 20
200.0
 30
0.0
 11
62.0
 21
200.0
 31
0.0
  0
LINE
  5
7B0
330
1D
100
AcDbEntity
  8
CSLAYER10
  6
Continuous
100
AcDbLine
 10
47.5
 20
200.0
 30
0.0
 11
45.568148
 21
200.517638
 31
0.0
  0
LINE
  5
7B1
330
1D
100
AcDbEntity
  8
CSLAYER10
  6
Continuous
100
AcDbLine
 10
47.5
 20
200.0
 30
0.0
 11
45.568148
 21
199.482362
 31
0.0
  0
LINE
  5
7B3
330
1D
100
AcDbEntity
  8
CSLAYER10
  6
Continuous
100
AcDbLine
 10
50.0
 20
200.0
 30
0.0
 11
51.931852
 21
200.517638
 31
0.0
  0
LINE
  5
7B4
330
1D
100
AcDbEntity
  8
CSLAYER10
  6
Continuous
100
AcDbLine
 10
50.0
 20
200.0
 30
0.0
 11
51.931852
 21
199.482362
 31
0.0
  0
TEXT
  5
7B5
330
1D
100
AcDbEntity
  8
CSLAYER10
100
AcDbText
 10
36.250004
 20
191.0
 30
0.0
 40
4.0
  1
17.5
 41
0.652173913043
  7
FX_FONT
 72
     5
 11
46.250004
 21
191.0
 31
0.0
100
AcDbText
  0
LINE
  5
7B6
330
1D
100
AcDbEntity
  8
CSLAYER10
  6
Continuous
100
AcDbLine
 10
32.5
 20
190.0
 30
0.0
 11
50.0
 21
190.0
 31
0.0
  0
LINE
  5
7B7
330
1D
100
AcDbEntity
  8
CSLAYER10
  6
Continuous
100
AcDbLine
 10
32.5
 20
190.0
 30
0.0
 11
34.431852
 21
190.517638
 31
0.0
  0
LINE
  5
7B8
330
1D
100
AcDbEntity
  8
CSLAYER10
  6
Continuous
100
AcDbLine
 10
32.5
 20
190.0
 30
0.0
 11
34.431852
 21
189.482362
 31
0.0
  0
LINE
  5
7B9
330
1D
100
AcDbEntity
  8
CSLAYER10
  6
Continuous
100
AcDbLine
 10
50.0
 20
190.0
 30
0.0
 11
48.068148
 21
190.517638
 31
0.0
  0
LINE
  5
7BA
330
1D
100
AcDbEntity
  8
CSLAYER10
  6
Continuous
100
AcDbLine
 10
50.0
 20
190.0
 30
0.0
 11
48.068148
 21
189.482362
 31
0.0
  0
LINE
  5
7BB
330
1D
100
AcDbEntity
  8
CSLAYER10
  6
Continuous
100
AcDbLine
 10
32.5
 20
224.5
 30
0.0
 11
32.5
 21
189.0
 31
0.0
  0
LINE
  5
7BC
330
1D
100
AcDbEntity
  8
CSLAYER10
  6
Continuous
100
AcDbLine
 10
50.0
 20
211.0
 30
0.0
 11
50.0
 21
189.0
 31
0.0
  0
TEXT
  5
7BD
330
1D
100
AcDbEntity
  8
CSLAYER10
100
AcDbText
 10
76.75
 20
257.5
 30
0.0
 40
4.0
  1
67
 50
90.0
 41
0.679245283019
  7
FX_FONT
 72
     5
 11
76.75
 21
262.5
 31
0.0
100
AcDbText
  0
LINE
  5
7BE
330
1D
100
AcDbEntity
  8
CSLAYER10
  6
Continuous
100
AcDbLine
 10
77.75
 20
226.5
 30
0.0
 11
77.75
 21
293.5
 31
0.0
  0
LINE
  5
7BF
330
1D
100
AcDbEntity
  8
CSLAYER10
  6
Continuous
100
AcDbLine
 10
77.75
 20
226.5
 30
0.0
 11
77.232362
 21
228.431852
 31
0.0
  0
LINE
  5
7C0
330
1D
100
AcDbEntity
  8
CSLAYER10
  6
Continuous
100
AcDbLine
 10
77.75
 20
226.5
 30
0.0
 11
78.267638
 21
228.431852
 31
0.0
  0
LINE
  5
7C1
330
1D
100
AcDbEntity
  8
CSLAYER10
  6
Continuous
100
AcDbLine
 10
77.75
 20
293.5
 30
0.0
 11
77.232362
 21
291.568148
 31
0.0
  0
LINE
  5
7C2
330
1D
100
AcDbEntity
  8
CSLAYER10
  6
Continuous
100
AcDbLine
 10
77.75
 20
293.5
 30
0.0
 11
78.267638
 21
291.568148
 31
0.0
  0
LINE
  5
7C3
330
1D
100
AcDbEntity
  8
CSLAYER10
  6
Continuous
100
AcDbLine
 10
93.0
 20
226.5
 30
0.0
 11
76.75
 21
226.5
 31
0.0
  0
LINE
  5
7C4
330
1D
100
AcDbEntity
  8
CSLAYER10
  6
Continuous
100
AcDbLine
 10
93.0
 20
293.5
 30
0.0
 11
76.75
 21
293.5
 31
0.0
  0
TEXT
  5
7C5
330
1D
100
AcDbEntity
  8
CSLAYER10
100
AcDbText
 10
98.5
 20
245.999985
 30
0.0
 40
4.0
  1
16
 41
0.681818181818
  7
FX_FONT
 72
     5
 11
103.5
 21
245.999985
 31
0.0
100
AcDbText
  0
LINE
  5
7C6
330
1D
100
AcDbEntity
  8
CSLAYER10
  6
Continuous
100
AcDbLine
 10
93.0
 20
245.0
 30
0.0
 11
109.0
 21
245.0
 31
0.0
  0
LINE
  5
7C7
330
1D
100
AcDbEntity
  8
CSLAYER10
  6
Continuous
100
AcDbLine
 10
93.0
 20
245.0
 30
0.0
 11
94.931852
 21
245.517638
 31
0.0
  0
LINE
  5
7C8
330
1D
100
AcDbEntity
  8
CSLAYER10
  6
Continuous
100
AcDbLine
 10
93.0
 20
245.0
 30
0.0
 11
94.931852
 21
244.482362
 31
0.0
  0
LINE
  5
7C9
330
1D
100
AcDbEntity
  8
CSLAYER10
  6
Continuous
100
AcDbLine
 10
109.0
 20
245.0
 30
0.0
 11
107.068148
 21
245.517638
 31
0.0
  0
LINE
  5
7CA
330
1D
100
AcDbEntity
  8
CSLAYER10
  6
Continuous
100
AcDbLine
 10
109.0
 20
245.0
 30
0.0
 11
107.068148
 21
244.482362
 31
0.0
  0
TEXT
  5
7CB
330
1D
100
AcDbEntity
  8
CSLAYER10
100
AcDbText
 10
103.25
 20
273.0
 30
0.0
 40
4.0
  1
9
 41
0.749583564686
  7
FX_FONT
 72
     5
 11
105.75
 21
273.0
 31
0.0
100
AcDbText
  0
LINE
  5
7CC
330
1D
100
AcDbEntity
  8
CSLAYER10
  6
Continuous
100
AcDbLine
 10
100.0
 20
272.0
 30
0.0
 11
109.0
 21
272.0
 31
0.0
  0
LINE
  5
7CD
330
1D
100
AcDbEntity
  8
CSLAYER10
  6
Continuous
100
AcDbLine
 10
100.0
 20
272.0
 30
0.0
 11
101.931852
 21
272.517638
 31
0.0
  0
LINE
  5
7CE
330
1D
100
AcDbEntity
  8
CSLAYER10
  6
Continuous
100
AcDbLine
 10
100.0
 20
272.0
 30
0.0
 11
101.931852
 21
271.482362
 31
0.0
  0
LINE
  5
7CF
330
1D
100
AcDbEntity
  8
CSLAYER10
  6
Continuous
100
AcDbLine
 10
109.0
 20
272.0
 30
0.0
 11
107.068148
 21
272.517638
 31
0.0
  0
LINE
  5
7D0
330
1D
100
AcDbEntity
  8
CSLAYER10
  6
Continuous
100
AcDbLine
 10
109.0
 20
272.0
 30
0.0
 11
107.068148
 21
271.482362
 31
0.0
  0
TEXT
  5
7D1
330
1D
100
AcDbEntity
  8
CSLAYER10
100
AcDbText
 10
135.5
 20
257.5
 30
0.0
 40
4.0
  1
80
 50
90.0
 41
0.705329153605
  7
FX_FONT
 72
     5
 11
135.5
 21
262.5
 31
0.0
100
AcDbText
  0
LINE
  5
7D2
330
1D
100
AcDbEntity
  8
CSLAYER10
  6
Continuous
100
AcDbLine
 10
136.5
 20
220.0
 30
0.0
 11
136.5
 21
300.0
 31
0.0
  0
LINE
  5
7D3
330
1D
100
AcDbEntity
  8
CSLAYER10
  6
Continuous
100
AcDbLine
 10
136.5
 20
220.0
 30
0.0
 11
135.982362
 21
221.931852
 31
0.0
  0
LINE
  5
7D4
330
1D
100
AcDbEntity
  8
CSLAYER10
  6
Continuous
100
AcDbLine
 10
136.5
 20
220.0
 30
0.0
 11
137.017638
 21
221.931852
 31
0.0
  0
LINE
  5
7D5
330
1D
100
AcDbEntity
  8
CSLAYER10
  6
Continuous
100
AcDbLine
 10
136.5
 20
300.0
 30
0.0
 11
135.982362
 21
298.068148
 31
0.0
  0
LINE
  5
7D6
330
1D
100
AcDbEntity
  8
CSLAYER10
  6
Continuous
100
AcDbLine
 10
136.5
 20
300.0
 30
0.0
 11
137.017638
 21
298.068148
 31
0.0
  0
LINE
  5
7D7
330
1D
100
AcDbEntity
  8
CSLAYER10
  6
Continuous
100
AcDbLine
 10
121.0
 20
220.0
 30
0.0
 11
137.5
 21
220.0
 31
0.0
  0
LINE
  5
7D8
330
1D
100
AcDbEntity
  8
CSLAYER10
  6
Continuous
100
AcDbLine
 10
121.0
 20
300.0
 30
0.0
 11
137.5
 21
300.0
 31
0.0
  0
TEXT
  5
7D9
330
1D
100
AcDbEntity
  8
CSLAYER10
100
AcDbText
 10
95.0
 20
201.0
 30
0.0
 40
4.0
  1
24.5
 41
0.652173913043
  7
FX_FONT
 72
     5
 11
105.0
 21
201.0
 31
0.0
100
AcDbText
  0
LINE
  5
7DA
330
1D
100
AcDbEntity
  8
CSLAYER10
  6
Continuous
100
AcDbLine
 10
87.75
 20
200.0
 30
0.0
 11
112.25
 21
200.0
 31
0.0
  0
LINE
  5
7DB
330
1D
100
AcDbEntity
  8
CSLAYER10
  6
Continuous
100
AcDbLine
 10
87.75
 20
200.0
 30
0.0
 11
89.681852
 21
200.517638
 31
0.0
  0
LINE
  5
7DC
330
1D
100
AcDbEntity
  8
CSLAYER10
  6
Continuous
100
AcDbLine
 10
87.75
 20
200.0
 30
0.0
 11
89.681852
 21
199.482362
 31
0.0
  0
LINE
  5
7DD
330
1D
100
AcDbEntity
  8
CSLAYER10
  6
Continuous
100
AcDbLine
 10
112.25
 20
200.0
 30
0.0
 11
110.318148
 21
200.517638
 31
0.0
  0
LINE
  5
7DE
330
1D
100
AcDbEntity
  8
CSLAYER10
  6
Continuous
100
AcDbLine
 10
112.25
 20
200.0
 30
0.0
 11
110.318148
 21
199.482362
 31
0.0
  0
LINE
  5
7DF
330
1D
100
AcDbEntity
  8
CSLAYER10
  6
Continuous
100
AcDbLine
 10
87.75
 20
211.3
 30
0.0
 11
87.75
 21
199.0
 31
0.0
  0
LINE
  5
7E0
330
1D
100
AcDbEntity
  8
CSLAYER10
  6
Continuous
100
AcDbLine
 10
112.25
 20
211.3
 30
0.0
 11
112.25
 21
199.0
 31
0.0
  0
TEXT
  5
7E1
330
1D
100
AcDbEntity
  8
CSLAYER10
100
AcDbText
 10
97.5
 20
156.5
 30
0.0
 40
4.0
  1
22
 41
0.681818181818
  7
FX_FONT
 72
     5
 11
102.5
 21
156.5
 31
0.0
100
AcDbText
  0
LINE
  5
7E2
330
1D
100
AcDbEntity
  8
CSLAYER10
  6
Continuous
100
AcDbLine
 10
89.0
 20
155.5
 30
0.0
 11
111.0
 21
155.5
 31
0.0
  0
LINE
  5
7E3
330
1D
100
AcDbEntity
  8
CSLAYER10
  6
Continuous
100
AcDbLine
 10
89.0
 20
155.5
 30
0.0
 11
90.931852
 21
156.017638
 31
0.0
  0
LINE
  5
7E4
330
1D
100
AcDbEntity
  8
CSLAYER10
  6
Continuous
100
AcDbLine
 10
89.0
 20
155.5
 30
0.0
 11
90.931852
 21
154.982362
 31
0.0
  0
LINE
  5
7E5
330
1D
100
AcDbEntity
  8
CSLAYER10
  6
Continuous
100
AcDbLine
 10
111.0
 20
155.5
 30
0.0
 11
109.068148
 21
156.017638
 31
0.0
  0
LINE
  5
7E6
330
1D
100
AcDbEntity
  8
CSLAYER10
  6
Continuous
100
AcDbLine
 10
111.0
 20
155.5
 30
0.0
 11
109.068148
 21
154.982362
 31
0.0
  0
LINE
  5
7E7
330
1D
100
AcDbEntity
  8
CSLAYER10
  6
Continuous
100
AcDbLine
 10
89.0
 20
167.5
 30
0.0
 11
89.0
 21
154.5
 31
0.0
  0
LINE
  5
7E8
330
1D
100
AcDbEntity
  8
CSLAYER10
  6
Continuous
100
AcDbLine
 10
111.0
 20
167.5
 30
0.0
 11
111.0
 21
154.5
 31
0.0
  0
TEXT
  5
7E9
330
1D
100
AcDbEntity
  8
CSLAYER10
100
AcDbText
 10
133.5
 20
187.25
 30
0.0
 40
4.0
  1
2.5
 50
90.0
 41
0.661764705882
  7
FX_FONT
 72
     5
 11
133.5
 21
194.75
 31
0.0
100
AcDbText
  0
LINE
  5
7EB
330
1D
100
AcDbEntity
  8
CSLAYER10
  6
Continuous
100
AcDbLine
 10
122.746579
 20
182.495439
 30
0.0
 11
135.5
 21
182.495439
 31
0.0
  0
LINE
  5
7EC
330
1D
100
AcDbEntity
  8
CSLAYER10
  6
Continuous
100
AcDbLine
 10
121.01717
 20
185.0
 30
0.0
 11
135.5
 21
185.0
 31
0.0
  0
LINE
  5
7ED
330
1D
100
AcDbEntity
  8
CSLAYER10
  6
Continuous
100
AcDbLine
 10
134.5
 20
177.495439
 30
0.0
 11
134.5
 21
197.0
 31
0.0
  0
LINE
  5
7EE
330
1D
100
AcDbEntity
  8
CSLAYER10
  6
Continuous
100
AcDbLine
 10
134.5
 20
182.495439
 30
0.0
 11
133.982362
 21
180.563587
 31
0.0
  0
LINE
  5
7EF
330
1D
100
AcDbEntity
  8
CSLAYER10
  6
Continuous
100
AcDbLine
 10
134.5
 20
182.495439
 30
0.0
 11
135.017638
 21
180.563587
 31
0.0
  0
LINE
  5
7F1
330
1D
100
AcDbEntity
  8
CSLAYER10
  6
Continuous
100
AcDbLine
 10
134.5
 20
185.0
 30
0.0
 11
133.982362
 21
186.931852
 31
0.0
  0
LINE
  5
7F2
330
1D
100
AcDbEntity
  8
CSLAYER10
  6
Continuous
100
AcDbLine
 10
134.5
 20
185.0
 30
0.0
 11
135.017638
 21
186.931852
 31
0.0
  0
TEXT
  5
7F3
330
1D
100
AcDbEntity
  8
CSLAYER10
100
AcDbText
 10
124.75
 20
171.495438
 30
0.0
 40
4.0
  1
2.5
 41
0.661764705882
  7
FX_FONT
 72
     5
 11
132.25
 21
171.495438
 31
0.0
100
AcDbText
  0
LINE
  5
7F5
330
1D
100
AcDbEntity
  8
CSLAYER10
  6
Continuous
100
AcDbLine
 10
120.01717
 20
182.5
 30
0.0
 11
120.01717
 21
169.495439
 31
0.0
  0
LINE
  5
7F7
330
1D
100
AcDbEntity
  8
CSLAYER10
  6
Continuous
100
AcDbLine
 10
115.01717
 20
170.495439
 30
0.0
 11
134.5
 21
170.495439
 31
0.0
  0
LINE
  5
7F8
330
1D
100
AcDbEntity
  8
CSLAYER10
  6
Continuous
100
AcDbLine
 10
120.01717
 20
170.495439
 30
0.0
 11
118.085318
 21
171.013077
 31
0.0
  0
LINE
  5
7F9
330
1D
100
AcDbEntity
  8
CSLAYER10
  6
Continuous
100
AcDbLine
 10
120.01717
 20
170.495439
 30
0.0
 11
118.085318
 21
169.9778
 31
0.0
  0
LINE
  5
7FB
330
1D
100
AcDbEntity
  8
CSLAYER10
  6
Continuous
100
AcDbLine
 10
122.5
 20
170.495439
 30
0.0
 11
124.431852
 21
171.013077
 31
0.0
  0
LINE
  5
7FC
330
1D
100
AcDbEntity
  8
CSLAYER10
  6
Continuous
100
AcDbLine
 10
122.5
 20
170.495439
 30
0.0
 11
124.431852
 21
169.9778
 31
0.0
  0
TEXT
  5
7FD
330
1D
100
AcDbEntity
  8
CSLAYER10
100
AcDbText
 10
145.5
 20
257.5
 30
0.0
 40
4.0
  1
96
 50
90.0
 41
0.681646048978
  7
FX_FONT
 72
     5
 11
145.5
 21
262.5
 31
0.0
100
AcDbText
  0
LINE
  5
7FE
330
1D
100
AcDbEntity
  8
CSLAYER10
  6
Continuous
100
AcDbLine
 10
146.5
 20
212.0
 30
0.0
 11
146.5
 21
308.0
 31
0.0
  0
LINE
  5
7FF
330
1D
100
AcDbEntity
  8
CSLAYER10
  6
Continuous
100
AcDbLine
 10
146.5
 20
212.0
 30
0.0
 11
145.982362
 21
213.931852
 31
0.0
  0
LINE
  5
800
330
1D
100
AcDbEntity
  8
CSLAYER10
  6
Continuous
100
AcDbLine
 10
146.5
 20
212.0
 30
0.0
 11
147.017638
 21
213.931852
 31
0.0
  0
LINE
  5
801
330
1D
100
AcDbEntity
  8
CSLAYER10
  6
Continuous
100
AcDbLine
 10
146.5
 20
308.0
 30
0.0
 11
145.982362
 21
306.068148
 31
0.0
  0
LINE
  5
802
330
1D
100
AcDbEntity
  8
CSLAYER10
  6
Continuous
100
AcDbLine
 10
146.5
 20
308.0
 30
0.0
 11
147.017638
 21
306.068148
 31
0.0
  0
LINE
  5
803
330
1D
100
AcDbEntity
  8
CSLAYER10
  6
Continuous
100
AcDbLine
 10
112.95
 20
212.0
 30
0.0
 11
147.5
 21
212.0
 31
0.0
  0
TEXT
  5
804
330
1D
100
AcDbEntity
  8
CSLAYER10
100
AcDbText
 10
145.5
 20
319.5
 30
0.0
 40
4.0
  1
28
 50
90.0
 41
0.681818181818
  7
FX_FONT
 72
     5
 11
145.5
 21
324.5
 31
0.0
100
AcDbText
  0
LINE
  5
808
330
1D
100
AcDbEntity
  8
CSLAYER10
  6
Continuous
100
AcDbLine
 10
146.5
 20
336.0
 30
0.0
 11
145.982362
 21
334.068148
 31
0.0
  0
LINE
  5
809
330
1D
100
AcDbEntity
  8
CSLAYER10
  6
Continuous
100
AcDbLine
 10
146.5
 20
336.0
 30
0.0
 11
147.017638
 21
334.068148
 31
0.0
  0
LINE
  5
80A
330
1D
100
AcDbEntity
  8
CSLAYER10
  6
Continuous
100
AcDbLine
 10
112.95
 20
308.0
 30
0.0
 11
147.5
 21
308.0
 31
0.0
  0
LINE
  5
80B
330
1D
100
AcDbEntity
  8
CSLAYER10
  6
Continuous
100
AcDbLine
 10
246.5
 20
336.0
 30
0.0
 11
145.5
 21
336.0
 31
0.0
  0
TEXT
  5
80C
330
1D
100
AcDbEntity
  8
CSLAYER10
100
AcDbText
 10
66.75
 20
257.5
 30
0.0
 40
4.0
  1
80
 50
90.0
 41
0.705329153605
  7
FX_FONT
 72
     5
 11
66.75
 21
262.5
 31
0.0
100
AcDbText
  0
LINE
  5
80D
330
1D
100
AcDbEntity
  8
CSLAYER10
  6
Continuous
100
AcDbLine
 10
67.75
 20
220.0
 30
0.0
 11
67.75
 21
300.0
 31
0.0
  0
LINE
  5
80E
330
1D
100
AcDbEntity
  8
CSLAYER10
  6
Continuous
100
AcDbLine
 10
67.75
 20
220.0
 30
0.0
 11
67.232362
 21
221.931852
 31
0.0
  0
LINE
  5
80F
330
1D
100
AcDbEntity
  8
CSLAYER10
  6
Continuous
100
AcDbLine
 10
67.75
 20
220.0
 30
0.0
 11
68.267638
 21
221.931852
 31
0.0
  0
LINE
  5
810
330
1D
100
AcDbEntity
  8
CSLAYER10
  6
Continuous
100
AcDbLine
 10
67.75
 20
300.0
 30
0.0
 11
67.232362
 21
298.068148
 31
0.0
  0
LINE
  5
811
330
1D
100
AcDbEntity
  8
CSLAYER10
  6
Continuous
100
AcDbLine
 10
67.75
 20
300.0
 30
0.0
 11
68.267638
 21
298.068148
 31
0.0
  0
LINE
  5
812
330
1D
100
AcDbEntity
  8
CSLAYER10
  6
Continuous
100
AcDbLine
 10
91.671906019397
 20
220.0
 30
0.0
 11
66.75
 21
220.0
 31
0.0
  0
LINE
  5
813
330
1D
100
AcDbEntity
  8
CSLAYER10
  6
Continuous
100
AcDbLine
 10
90.312335992445
 20
300.0
 30
0.0
 11
66.75
 21
300.0
 31
0.0
  0
TEXT
  5
814
330
1D
100
AcDbEntity
  8
CSLAYER10
100
AcDbText
 10
110.0
 20
146.5
 30
0.0
 40
4.0
  1
L
 41
0.75
  7
FX_FONT
 72
     5
 11
112.5
 21
146.5
 31
0.0
100
AcDbText
  0
LINE
  5
815
330
1D
100
AcDbEntity
  8
CSLAYER10
  6
Continuous
100
AcDbLine
 10
100.0
 20
145.5
 30
0.0
 11
122.5
 21
145.5
 31
0.0
  0
LINE
  5
816
330
1D
100
AcDbEntity
  8
CSLAYER10
  6
Continuous
100
AcDbLine
 10
100.0
 20
145.5
 30
0.0
 11
101.931852
 21
146.017638
 31
0.0
  0
LINE
  5
817
330
1D
100
AcDbEntity
  8
CSLAYER10
  6
Continuous
100
AcDbLine
 10
100.0
 20
145.5
 30
0.0
 11
101.931852
 21
144.982362
 31
0.0
  0
LINE
  5
818
330
1D
100
AcDbEntity
  8
CSLAYER10
  6
Continuous
100
AcDbLine
 10
122.5
 20
145.5
 30
0.0
 11
120.568148
 21
146.017638
 31
0.0
  0
LINE
  5
819
330
1D
100
AcDbEntity
  8
CSLAYER10
  6
Continuous
100
AcDbLine
 10
122.5
 20
145.5
 30
0.0
 11
120.568148
 21
144.982362
 31
0.0
  0
LINE
  5
81A
330
1D
100
AcDbEntity
  8
CSLAYER10
  6
Continuous
100
AcDbLine
 10
100.0
 20
154.5
 30
0.0
 11
100.0
 21
144.5
 31
0.0
  0
LINE
  5
81B
330
1D
100
AcDbEntity
  8
CSLAYER10
  6
Continuous
100
AcDbLine
 10
122.5
 20
182.792495
 30
0.0
 11
122.5
 21
144.5
 31
0.0
  0
TEXT
  5
81C
330
1D
100
AcDbEntity
  8
CSLAYER10
100
AcDbText
 10
19.499998
 20
257.0
 30
0.0
 40
4.0
  1
69
 50
90.0
 41
0.67907444668
  7
FX_FONT
 72
     5
 11
19.499998
 21
262.0
 31
0.0
100
AcDbText
  0
LINE
  5
81D
330
1D
100
AcDbEntity
  8
CSLAYER10
  6
Continuous
100
AcDbLine
 10
20.5
 20
225.0
 30
0.0
 11
20.5
 21
294.0
 31
0.0
  0
LINE
  5
81E
330
1D
100
AcDbEntity
  8
CSLAYER10
  6
Continuous
100
AcDbLine
 10
20.5
 20
225.0
 30
0.0
 11
19.982362
 21
226.931852
 31
0.0
  0
LINE
  5
81F
330
1D
100
AcDbEntity
  8
CSLAYER10
  6
Continuous
100
AcDbLine
 10
20.5
 20
225.0
 30
0.0
 11
21.017638
 21
226.931852
 31
0.0
  0
LINE
  5
820
330
1D
100
AcDbEntity
  8
CSLAYER10
  6
Continuous
100
AcDbLine
 10
20.5
 20
294.0
 30
0.0
 11
19.982362
 21
292.068148
 31
0.0
  0
LINE
  5
821
330
1D
100
AcDbEntity
  8
CSLAYER10
  6
Continuous
100
AcDbLine
 10
20.5
 20
294.0
 30
0.0
 11
21.017638
 21
292.068148
 31
0.0
  0
LINE
  5
822
330
1D
100
AcDbEntity
  8
CSLAYER10
  6
Continuous
100
AcDbLine
 10
32.0
 20
225.0
 30
0.0
 11
19.5
 21
225.0
 31
0.0
  0
LINE
  5
823
330
1D
100
AcDbEntity
  8
CSLAYER10
  6
Continuous
100
AcDbLine
 10
32.0
 20
294.0
 30
0.0
 11
19.5
 21
294.0
 31
0.0
  0
LINE
  5
825
330
1D
100
AcDbEntity
  8
CSLAYER10
  6
Continuous
100
AcDbLine
 10
220.0
 20
348.0
 30
0.0
 11
260.0
 21
348.0
 31
0.0
  0
LINE
  5
826
330
1D
100
AcDbEntity
  8
CSLAYER10
  6
Continuous
100
AcDbLine
 10
220.0
 20
348.0
 30
0.0
 11
221.931852
 21
348.517638
 31
0.0
  0
LINE
  5
827
330
1D
100
AcDbEntity
  8
CSLAYER10
  6
Continuous
100
AcDbLine
 10
220.0
 20
348.0
 30
0.0
 11
221.931852
 21
347.482362
 31
0.0
  0
LINE
  5
828
330
1D
100
AcDbEntity
  8
CSLAYER10
  6
Continuous
100
AcDbLine
 10
260.0
 20
348.0
 30
0.0
 11
258.068148
 21
348.517638
 31
0.0
  0
LINE
  5
829
330
1D
100
AcDbEntity
  8
CSLAYER10
  6
Continuous
100
AcDbLine
 10
260.0
 20
348.0
 30
0.0
 11
258.068148
 21
347.482362
 31
0.0
  0
LINE
  5
82A
330
1D
100
AcDbEntity
  8
CSLAYER10
  6
Continuous
100
AcDbLine
 10
220.0
 20
311.6
 30
0.0
 11
220.0
 21
349.0
 31
0.0
  0
LINE
  5
82B
330
1D
100
AcDbEntity
  8
CSLAYER10
  6
Continuous
100
AcDbLine
 10
260.0
 20
299.5
 30
0.0
 11
260.0
 21
349.0
 31
0.0
  0
TEXT
  5
82C
330
1D
100
AcDbEntity
  8
CSLAYER10
100
AcDbText
 10
277.5
 20
349.0
 30
0.0
 40
4.0
  1
40
 41
0.705329153605
  7
FX_FONT
 72
     5
 11
282.5
 21
349.0
 31
0.0
100
AcDbText
  0
LINE
  5
830
330
1D
100
AcDbEntity
  8
CSLAYER10
  6
Continuous
100
AcDbLine
 10
300.0
 20
348.0
 30
0.0
 11
298.068148
 21
348.517638
 31
0.0
  0
LINE
  5
831
330
1D
100
AcDbEntity
  8
CSLAYER10
  6
Continuous
100
AcDbLine
 10
300.0
 20
348.0
 30
0.0
 11
298.068148
 21
347.482362
 31
0.0
  0
LINE
  5
832
330
1D
100
AcDbEntity
  8
CSLAYER10
  6
Continuous
100
AcDbLine
 10
300.0
 20
311.6
 30
0.0
 11
300.0
 21
349.0
 31
0.0
  0
TEXT
  5
833
330
1D
100
AcDbEntity
  8
CSLAYER10
100
AcDbText
 10
305.0
 20
349.0
 30
0.0
 40
4.0
  1
15
 41
0.681818181818
  7
FX_FONT
 72
     5
 11
310.0
 21
349.0
 31
0.0
100
AcDbText
  0
LINE
  5
837
330
1D
100
AcDbEntity
  8
CSLAYER10
  6
Continuous
100
AcDbLine
 10
315.0
 20
348.0
 30
0.0
 11
313.068148
 21
348.517638
 31
0.0
  0
LINE
  5
838
330
1D
100
AcDbEntity
  8
CSLAYER10
  6
Continuous
100
AcDbLine
 10
315.0
 20
348.0
 30
0.0
 11
313.068148
 21
347.482362
 31
0.0
  0
LINE
  5
839
330
1D
100
AcDbEntity
  8
CSLAYER10
  6
Continuous
100
AcDbLine
 10
315.0
 20
294.0
 30
0.0
 11
315.0
 21
349.0
 31
0.0
  0
TEXT
  5
83A
330
1D
100
AcDbEntity
  8
CSLAYER10
100
AcDbText
 10
326.0
 20
295.75
 30
0.0
 40
4.0
  1
D
 50
90.0
 41
0.75
  7
FX_FONT
 72
     5
 11
326.0
 21
298.25
 31
0.0
100
AcDbText
  0
LINE
  5
83B
330
1D
100
AcDbEntity
  8
CSLAYER10
  6
Continuous
100
AcDbLine
 10
279.0
 20
277.618696
 30
0.0
 11
328.0
 21
277.618696
 31
0.0
  0
LINE
  5
83C
330
1D
100
AcDbEntity
  8
CSLAYER10
  6
Continuous
100
AcDbLine
 10
279.0
 20
316.381304
 30
0.0
 11
328.0
 21
316.381304
 31
0.0
  0
LINE
  5
83D
330
1D
100
AcDbEntity
  8
CSLAYER10
  6
Continuous
100
AcDbLine
 10
327.0
 20
277.618696
 30
0.0
 11
327.0
 21
316.381304
 31
0.0
  0
LINE
  5
83E
330
1D
100
AcDbEntity
  8
CSLAYER10
  6
Continuous
100
AcDbLine
 10
327.0
 20
277.618696
 30
0.0
 11
326.482362
 21
279.550548
 31
0.0
  0
LINE
  5
83F
330
1D
100
AcDbEntity
  8
CSLAYER10
  6
Continuous
100
AcDbLine
 10
327.0
 20
277.618696
 30
0.0
 11
327.517638
 21
279.550548
 31
0.0
  0
LINE
  5
840
330
1D
100
AcDbEntity
  8
CSLAYER10
  6
Continuous
100
AcDbLine
 10
327.0
 20
316.381304
 30
0.0
 11
326.482362
 21
314.449452
 31
0.0
  0
LINE
  5
841
330
1D
100
AcDbEntity
  8
CSLAYER10
  6
Continuous
100
AcDbLine
 10
327.0
 20
316.381304
 30
0.0
 11
327.517638
 21
314.449452
 31
0.0
  0
TEXT
  5
842
330
1D
100
AcDbEntity
  8
CSLAYER10
100
AcDbText
 10
257.0
 20
175.000015
 30
0.0
 40
4.0
  1
25
 41
0.818181818182
  7
FX_FONT
 72
     5
 11
263.0
 21
175.000015
 31
0.0
100
AcDbText
  0
LINE
  5
844
330
1D
100
AcDbEntity
  8
CSLAYER10
  6
Continuous
100
AcDbLine
 10
272.5
 20
185.0
 30
0.0
 11
272.5
 21
173.0
 31
0.0
  0
LINE
  5
845
330
1D
100
AcDbEntity
  8
CSLAYER10
  6
Continuous
100
AcDbLine
 10
247.5
 20
174.0
 30
0.0
 11
272.5
 21
174.0
 31
0.0
  0
LINE
  5
846
330
1D
100
AcDbEntity
  8
CSLAYER10
  6
Continuous
100
AcDbLine
 10
247.5
 20
174.0
 30
0.0
 11
249.431852
 21
174.517638
 31
0.0
  0
TEXT
  5
84A
330
1D
100
AcDbEntity
  8
CSLAYER10
100
AcDbText
 10
257.5
 20
227.500015
 30
0.0
 40
4.0
  1
14
 41
0.681818181818
  7
FX_FONT
 72
     5
 11
262.5
 21
227.500015
 31
0.0
100
AcDbText
  0
LINE
  5
84B
330
1D
100
AcDbEntity
  8
CSLAYER10
  6
Continuous
100
AcDbLine
 10
253.0
 20
240.358572
 30
0.0
 11
253.0
 21
225.5
 31
0.0
  0
LINE
  5
84C
330
1D
100
AcDbEntity
  8
CSLAYER10
  6
Continuous
100
AcDbLine
 10
267.0
 20
240.358572
 30
0.0
 11
267.0
 21
225.5
 31
0.0
  0
LINE
  5
84D
330
1D
100
AcDbEntity
  8
CSLAYER10
  6
Continuous
100
AcDbLine
 10
253.0
 20
226.5
 30
0.0
 11
267.0
 21
226.5
 31
0.0
  0
LINE
  5
84E
330
1D
100
AcDbEntity
  8
CSLAYER10
  6
Continuous
100
AcDbLine
 10
253.0
 20
226.5
 30
0.0
 11
254.931852
 21
227.017638
 31
0.0
  0
LINE
  5
84F
330
1D
100
AcDbEntity
  8
CSLAYER10
  6
Continuous
100
AcDbLine
 10
253.0
 20
226.5
 30
0.0
 11
254.931852
 21
225.982362
 31
0.0
  0
LINE
  5
850
330
1D
100
AcDbEntity
  8
CSLAYER10
  6
Continuous
100
AcDbLine
 10
267.0
 20
226.5
 30
0.0
 11
265.068148
 21
227.017638
 31
0.0
  0
LINE
  5
851
330
1D
100
AcDbEntity
  8
CSLAYER10
  6
Continuous
100
AcDbLine
 10
267.0
 20
226.5
 30
0.0
 11
265.068148
 21
225.982362
 31
0.0
  0
LINE
  5
852
330
1D
100
AcDbEntity
  8
CSLAYER10
  6
Continuous
100
AcDbLine
 10
242.0
 20
194.5
 30
0.0
 11
242.0
 21
163.0
 31
0.0
  0
TEXT
  5
853
330
1D
100
AcDbEntity
  8
CSLAYER10
100
AcDbText
 10
253.75
 20
165.0
 30
0.0
 40
4.0
  1
30~52
 41
0.645438898451
  7
FX_FONT
 72
     5
 11
266.25
 21
165.0
 31
0.0
100
AcDbText
  0
LINE
  5
857
330
1D
100
AcDbEntity
  8
CSLAYER10
  6
Continuous
100
AcDbLine
 10
278.0
 20
164.0
 30
0.0
 11
276.068148
 21
164.517638
 31
0.0
  0
LINE
  5
858
330
1D
100
AcDbEntity
  8
CSLAYER10
  6
Continuous
100
AcDbLine
 10
278.0
 20
164.0
 30
0.0
 11
276.068148
 21
163.482362
 31
0.0
  0
TEXT
  5
859
330
1D
100
AcDbEntity
  8
CSLAYER10
100
AcDbText
 10
310.5
 20
165.000015
 30
0.0
 40
4.0
  1
70
 41
0.705329153605
  7
FX_FONT
 72
     5
 11
315.5
 21
165.000015
 31
0.0
100
AcDbText
  0
LINE
  5
85A
330
1D
100
AcDbEntity
  8
CSLAYER10
  6
Continuous
100
AcDbLine
 10
348.0
 20
209.0
 30
0.0
 11
348.0
 21
163.0
 31
0.0
  0
LINE
  5
85E
330
1D
100
AcDbEntity
  8
CSLAYER10
  6
Continuous
100
AcDbLine
 10
348.0
 20
164.0
 30
0.0
 11
346.068148
 21
164.517638
 31
0.0
  0
LINE
  5
85F
330
1D
100
AcDbEntity
  8
CSLAYER10
  6
Continuous
100
AcDbLine
 10
348.0
 20
164.0
 30
0.0
 11
346.068148
 21
163.482362
 31
0.0
  0
TEXT
  5
860
330
1D
100
AcDbEntity
  8
CSLAYER10
100
AcDbText
 10
204.5
 20
165.000015
 30
0.0
 40
4.0
  1
70
 41
0.705329153605
  7
FX_FONT
 72
     5
 11
209.5
 21
165.000015
 31
0.0
100
AcDbText
  0
LINE
  5
861
330
1D
100
AcDbEntity
  8
CSLAYER10
  6
Continuous
100
AcDbLine
 10
172.0
 20
209.0
 30
0.0
 11
172.0
 21
163.0
 31
0.0
  0
LINE
  5
862
330
1D
100
AcDbEntity
  8
CSLAYER10
  6
Continuous
100
AcDbLine
 10
172.0
 20
164.0
 30
0.0
 11
242.0
 21
164.0
 31
0.0
  0
LINE
  5
863
330
1D
100
AcDbEntity
  8
CSLAYER10
  6
Continuous
100
AcDbLine
 10
172.0
 20
164.0
 30
0.0
 11
173.931852
 21
164.517638
 31
0.0
  0
LINE
  5
864
330
1D
100
AcDbEntity
  8
CSLAYER10
  6
Continuous
100
AcDbLine
 10
172.0
 20
164.0
 30
0.0
 11
173.931852
 21
163.482362
 31
0.0
  0
LINE
  5
865
330
1D
100
AcDbEntity
  8
CSLAYER10
  6
Continuous
100
AcDbLine
 10
242.0
 20
164.0
 30
0.0
 11
240.068148
 21
164.517638
 31
0.0
  0
LINE
  5
866
330
1D
100
AcDbEntity
  8
CSLAYER10
  6
Continuous
100
AcDbLine
 10
242.0
 20
164.0
 30
0.0
 11
240.068148
 21
163.482362
 31
0.0
  0
TEXT
  5
867
330
1D
100
AcDbEntity
  8
CSLAYER10
100
AcDbText
 10
190.149994
 20
175.000015
 30
0.0
 40
4.0
  1
41
 41
0.75
  7
FX_FONT
 72
     5
 11
195.149994
 21
175.000015
 31
0.0
100
AcDbText
  0
LINE
  5
868
330
1D
100
AcDbEntity
  8
CSLAYER10
  6
Continuous
100
AcDbLine
 10
213.3
 20
213.5
 30
0.0
 11
213.3
 21
173.0
 31
0.0
  0
LINE
  5
869
330
1D
100
AcDbEntity
  8
CSLAYER10
  6
Continuous
100
AcDbLine
 10
172.0
 20
174.0
 30
0.0
 11
213.3
 21
174.0
 31
0.0
  0
LINE
  5
86A
330
1D
100
AcDbEntity
  8
CSLAYER10
  6
Continuous
100
AcDbLine
 10
172.0
 20
174.0
 30
0.0
 11
173.931852
 21
174.517638
 31
0.0
  0
LINE
  5
86B
330
1D
100
AcDbEntity
  8
CSLAYER10
  6
Continuous
100
AcDbLine
 10
172.0
 20
174.0
 30
0.0
 11
173.931852
 21
173.482362
 31
0.0
  0
LINE
  5
86C
330
1D
100
AcDbEntity
  8
CSLAYER10
  6
Continuous
100
AcDbLine
 10
213.3
 20
174.0
 30
0.0
 11
211.368148
 21
174.517638
 31
0.0
  0
LINE
  5
86D
330
1D
100
AcDbEntity
  8
CSLAYER10
  6
Continuous
100
AcDbLine
 10
213.3
 20
174.0
 30
0.0
 11
211.368148
 21
173.482362
 31
0.0
  0
TEXT
  5
86E
330
1D
100
AcDbEntity
  8
CSLAYER10
100
AcDbText
 10
225.149994
 20
175.000015
 30
0.0
 40
4.0
  1
29
 41
0.681646048978
  7
FX_FONT
 72
     5
 11
230.149994
 21
175.000015
 31
0.0
100
AcDbText
  0
LINE
  5
872
330
1D
100
AcDbEntity
  8
CSLAYER10
  6
Continuous
100
AcDbLine
 10
242.0
 20
174.0
 30
0.0
 11
240.068148
 21
174.517638
 31
0.0
  0
LINE
  5
873
330
1D
100
AcDbEntity
  8
CSLAYER10
  6
Continuous
100
AcDbLine
 10
242.0
 20
174.0
 30
0.0
 11
240.068148
 21
173.482362
 31
0.0
  0
TEXT
  5
874
330
1D
100
AcDbEntity
  8
CSLAYER10
100
AcDbText
 10
220.5
 20
228.250015
 30
0.0
 40
4.0
  1
%%c75
 50
90.0
 41
0.661764705882
  7
FX_FONT
 72
     5
 11
220.5
 21
235.750015
 31
0.0
100
AcDbText
  0
LINE
  5
875
330
1D
100
AcDbEntity
  8
CSLAYER10
  6
Continuous
100
AcDbLine
 10
234.344242
 20
194.5
 30
0.0
 11
220.5
 21
194.5
 31
0.0
  0
LINE
  5
876
330
1D
100
AcDbEntity
  8
CSLAYER10
  6
Continuous
100
AcDbLine
 10
234.344242
 20
269.5
 30
0.0
 11
220.5
 21
269.5
 31
0.0
  0
LINE
  5
877
330
1D
100
AcDbEntity
  8
CSLAYER10
  6
Continuous
100
AcDbLine
 10
221.5
 20
194.5
 30
0.0
 11
221.5
 21
269.5
 31
0.0
  0
LINE
  5
878
330
1D
100
AcDbEntity
  8
CSLAYER10
  6
Continuous
100
AcDbLine
 10
221.5
 20
194.5
 30
0.0
 11
220.982362
 21
196.431852
 31
0.0
  0
LINE
  5
879
330
1D
100
AcDbEntity
  8
CSLAYER10
  6
Continuous
100
AcDbLine
 10
221.5
 20
194.5
 30
0.0
 11
222.017638
 21
196.431852
 31
0.0
  0
LINE
  5
87A
330
1D
100
AcDbEntity
  8
CSLAYER10
  6
Continuous
100
AcDbLine
 10
221.5
 20
269.5
 30
0.0
 11
220.982362
 21
267.568148
 31
0.0
  0
LINE
  5
87B
330
1D
100
AcDbEntity
  8
CSLAYER10
  6
Continuous
100
AcDbLine
 10
221.5
 20
269.5
 30
0.0
 11
222.017638
 21
267.568148
 31
0.0
  0
TEXT
  5
87C
330
1D
100
AcDbEntity
  8
CSLAYER10
100
AcDbText
 10
257.5
 20
294.5
 30
0.0
 40
4.0
  1
12
 41
0.681818181818
  7
FX_FONT
 72
     5
 11
262.5
 21
294.5
 31
0.0
100
AcDbText
  0
LINE
  5
87D
330
1D
100
AcDbEntity
  8
CSLAYER10
  6
Continuous
100
AcDbLine
 10
254.0
 20
284.5
 30
0.0
 11
254.0
 21
294.5
 31
0.0
  0
LINE
  5
87E
330
1D
100
AcDbEntity
  8
CSLAYER10
  6
Continuous
100
AcDbLine
 10
266.0
 20
284.5
 30
0.0
 11
266.0
 21
294.5
 31
0.0
  0
LINE
  5
87F
330
1D
100
AcDbEntity
  8
CSLAYER10
  6
Continuous
100
AcDbLine
 10
254.0
 20
293.5
 30
0.0
 11
266.0
 21
293.5
 31
0.0
  0
LINE
  5
880
330
1D
100
AcDbEntity
  8
CSLAYER10
  6
Continuous
100
AcDbLine
 10
254.0
 20
293.5
 30
0.0
 11
255.931852
 21
294.017638
 31
0.0
  0
LINE
  5
881
330
1D
100
AcDbEntity
  8
CSLAYER10
  6
Continuous
100
AcDbLine
 10
254.0
 20
293.5
 30
0.0
 11
255.931852
 21
292.982362
 31
0.0
  0
LINE
  5
882
330
1D
100
AcDbEntity
  8
CSLAYER10
  6
Continuous
100
AcDbLine
 10
266.0
 20
293.5
 30
0.0
 11
264.068148
 21
294.017638
 31
0.0
  0
LINE
  5
883
330
1D
100
AcDbEntity
  8
CSLAYER10
  6
Continuous
100
AcDbLine
 10
266.0
 20
293.5
 30
0.0
 11
264.068148
 21
292.982362
 31
0.0
  0
LINE
  5
884
330
1D
100
AcDbEntity
  8
CSLAYER10
  6
Continuous
100
AcDbLine
 10
278.0
 20
276.618696
 30
0.0
 11
278.0
 21
270.0
 31
0.0
  0
LINE
  5
885
330
1D
100
AcDbEntity
  8
CSLAYER10
  6
Continuous
100
AcDbLine
 10
242.0
 20
276.618696
 30
0.0
 11
242.0
 21
270.0
 31
0.0
  0
TEXT
  5
886
330
1D
100
AcDbEntity
  8
CSLAYER10
100
AcDbText
 10
161.0
 20
228.25
 30
0.0
 40
4.0
  1
%%c52
 50
90.0
 41
0.660146699267
  7
FX_FONT
 72
     5
 11
161.0
 21
235.75
 31
0.0
100
AcDbText
  0
LINE
  5
887
330
1D
100
AcDbEntity
  8
CSLAYER10
  6
Continuous
100
AcDbLine
 10
196.0
 20
206.0
 30
0.0
 11
161.0
 21
206.0
 31
0.0
  0
LINE
  5
888
330
1D
100
AcDbEntity
  8
CSLAYER10
  6
Continuous
100
AcDbLine
 10
196.0
 20
258.0
 30
0.0
 11
161.0
 21
258.0
 31
0.0
  0
LINE
  5
889
330
1D
100
AcDbEntity
  8
CSLAYER10
  6
Continuous
100
AcDbLine
 10
162.0
 20
206.0
 30
0.0
 11
162.0
 21
258.0
 31
0.0
  0
LINE
  5
88A
330
1D
100
AcDbEntity
  8
CSLAYER10
  6
Continuous
100
AcDbLine
 10
162.0
 20
206.0
 30
0.0
 11
161.482362
 21
207.931852
 31
0.0
  0
LINE
  5
88B
330
1D
100
AcDbEntity
  8
CSLAYER10
  6
Continuous
100
AcDbLine
 10
162.0
 20
206.0
 30
0.0
 11
162.517638
 21
207.931852
 31
0.0
  0
LINE
  5
88C
330
1D
100
AcDbEntity
  8
CSLAYER10
  6
Continuous
100
AcDbLine
 10
162.0
 20
258.0
 30
0.0
 11
161.482362
 21
256.068148
 31
0.0
  0
LINE
  5
88D
330
1D
100
AcDbEntity
  8
CSLAYER10
  6
Continuous
100
AcDbLine
 10
162.0
 20
258.0
 30
0.0
 11
162.517638
 21
256.068148
 31
0.0
  0
TEXT
  5
88E
330
1D
100
AcDbEntity
  8
CSLAYER10
100
AcDbText
 10
392.0
 20
245.5
 30
0.0
 40
4.0
  1
20
 50
90.0
 41
0.846394984326
  7
FX_FONT
 72
     5
 11
392.0
 21
251.5
 31
0.0
100
AcDbText
  0
LINE
  5
88F
330
1D
100
AcDbEntity
  8
CSLAYER10
  6
Continuous
100
AcDbLine
 10
413.0
 20
238.5
 30
0.0
 11
392.0
 21
238.5
 31
0.0
  0
LINE
  5
890
330
1D
100
AcDbEntity
  8
CSLAYER10
  6
Continuous
100
AcDbLine
 10
413.0
 20
258.5
 30
0.0
 11
392.0
 21
258.5
 31
0.0
  0
LINE
  5
891
330
1D
100
AcDbEntity
  8
CSLAYER10
  6
Continuous
100
AcDbLine
 10
393.0
 20
238.5
 30
0.0
 11
393.0
 21
258.5
 31
0.0
  0
LINE
  5
892
330
1D
100
AcDbEntity
  8
CSLAYER10
  6
Continuous
100
AcDbLine
 10
393.0
 20
238.5
 30
0.0
 11
392.482362
 21
240.431852
 31
0.0
  0
LINE
  5
893
330
1D
100
AcDbEntity
  8
CSLAYER10
  6
Continuous
100
AcDbLine
 10
393.0
 20
238.5
 30
0.0
 11
393.517638
 21
240.431852
 31
0.0
  0
LINE
  5
894
330
1D
100
AcDbEntity
  8
CSLAYER10
  6
Continuous
100
AcDbLine
 10
393.0
 20
258.5
 30
0.0
 11
392.482362
 21
256.568148
 31
0.0
  0
LINE
  5
895
330
1D
100
AcDbEntity
  8
CSLAYER10
  6
Continuous
100
AcDbLine
 10
393.0
 20
258.5
 30
0.0
 11
393.517638
 21
256.568148
 31
0.0
  0
TEXT
  5
896
330
1D
100
AcDbEntity
  8
CSLAYER10
100
AcDbText
 10
397.640030095052
 20
227.868508860036
 30
0.0
 40
3.638819
  1
10.5
 41
0.782325172812
  7
FX_FONT
 72
     5
 11
408.556486095052
 21
227.868508860036
 31
0.0
100
AcDbText
  0
LINE
  5
897
330
1D
100
AcDbEntity
  8
CSLAYER10
  6
Continuous
100
AcDbLine
 10
409.5
 20
240.358572
 30
0.0
 11
409.5
 21
225.427143
 31
0.0
  0
LINE
  5
898
330
1D
100
AcDbEntity
  8
CSLAYER10
  6
Continuous
100
AcDbLine
 10
420.0
 20
225.5
 30
0.0
 11
420.0
 21
225.427143
 31
0.0
  0
LINE
  5
899
330
1D
100
AcDbEntity
  8
CSLAYER10
  6
Continuous
100
AcDbLine
 10
397.791337064435
 20
226.427143
 30
0.0
 11
420.0
 21
226.427143
 31
0.0
  0
LINE
  5
89A
330
1D
100
AcDbEntity
  8
CSLAYER10
  6
Continuous
100
AcDbLine
 10
409.5
 20
226.427143
 30
0.0
 11
411.431852
 21
226.944781
 31
0.0
  0
LINE
  5
89B
330
1D
100
AcDbEntity
  8
CSLAYER10
  6
Continuous
100
AcDbLine
 10
409.5
 20
226.427143
 30
0.0
 11
411.431852
 21
225.909505
 31
0.0
  0
LINE
  5
89C
330
1D
100
AcDbEntity
  8
CSLAYER10
  6
Continuous
100
AcDbLine
 10
420.0
 20
226.427143
 30
0.0
 11
418.068148
 21
226.944781
 31
0.0
  0
LINE
  5
89D
330
1D
100
AcDbEntity
  8
CSLAYER10
  6
Continuous
100
AcDbLine
 10
420.0
 20
226.427143
 30
0.0
 11
418.068148
 21
225.909505
 31
0.0
  0
TEXT
  5
89E
330
1D
100
AcDbEntity
  8
CSLAYER10
100
AcDbText
 10
519.0
 20
118.0
 30
0.0
 40
4.0
  1
18
 50
90.0
 41
0.818181818182
  7
FX_FONT
 72
     5
 11
519.0
 21
124.0
 31
0.0
100
AcDbText
  0
LINE
  5
89F
330
1D
100
AcDbEntity
  8
CSLAYER10
  6
Continuous
100
AcDbLine
 10
504.0
 20
112.4
 30
0.0
 11
521.0
 21
112.4
 31
0.0
  0
LINE
  5
8A0
330
1D
100
AcDbEntity
  8
CSLAYER10
  6
Continuous
100
AcDbLine
 10
506.0
 20
129.6
 30
0.0
 11
521.0
 21
129.6
 31
0.0
  0
LINE
  5
8A1
330
1D
100
AcDbEntity
  8
CSLAYER10
  6
Continuous
100
AcDbLine
 10
520.0
 20
112.4
 30
0.0
 11
520.0
 21
129.6
 31
0.0
  0
LINE
  5
8A2
330
1D
100
AcDbEntity
  8
CSLAYER10
  6
Continuous
100
AcDbLine
 10
520.0
 20
112.4
 30
0.0
 11
519.482362
 21
114.331852
 31
0.0
  0
LINE
  5
8A3
330
1D
100
AcDbEntity
  8
CSLAYER10
  6
Continuous
100
AcDbLine
 10
520.0
 20
112.4
 30
0.0
 11
520.517638
 21
114.331852
 31
0.0
  0
LINE
  5
8A4
330
1D
100
AcDbEntity
  8
CSLAYER10
  6
Continuous
100
AcDbLine
 10
520.0
 20
129.6
 30
0.0
 11
519.482362
 21
127.668148
 31
0.0
  0
LINE
  5
8A5
330
1D
100
AcDbEntity
  8
CSLAYER10
  6
Continuous
100
AcDbLine
 10
520.0
 20
129.6
 30
0.0
 11
520.517638
 21
127.668148
 31
0.0
  0
TEXT
  5
8A6
330
1D
100
AcDbEntity
  8
CSLAYER10
100
AcDbText
 10
529.0
 20
118.0
 30
0.0
 40
4.0
  1
19
 50
90.0
 41
0.817975258773
  7
FX_FONT
 72
     5
 11
529.0
 21
124.0
 31
0.0
100
AcDbText
  0
LINE
  5
8A7
330
1D
100
AcDbEntity
  8
CSLAYER10
  6
Continuous
100
AcDbLine
 10
442.5
 20
111.7
 30
0.0
 11
531.0
 21
111.7
 31
0.0
  0
LINE
  5
8A8
330
1D
100
AcDbEntity
  8
CSLAYER10
  6
Continuous
100
AcDbLine
 10
442.5
 20
130.3
 30
0.0
 11
531.0
 21
130.3
 31
0.0
  0
LINE
  5
8A9
330
1D
100
AcDbEntity
  8
CSLAYER10
  6
Continuous
100
AcDbLine
 10
530.0
 20
111.7
 30
0.0
 11
530.0
 21
130.3
 31
0.0
  0
LINE
  5
8AA
330
1D
100
AcDbEntity
  8
CSLAYER10
  6
Continuous
100
AcDbLine
 10
530.0
 20
111.7
 30
0.0
 11
529.482362
 21
113.631852
 31
0.0
  0
LINE
  5
8AB
330
1D
100
AcDbEntity
  8
CSLAYER10
  6
Continuous
100
AcDbLine
 10
530.0
 20
111.7
 30
0.0
 11
530.517638
 21
113.631852
 31
0.0
  0
LINE
  5
8AC
330
1D
100
AcDbEntity
  8
CSLAYER10
  6
Continuous
100
AcDbLine
 10
530.0
 20
130.3
 30
0.0
 11
529.482362
 21
128.368148
 31
0.0
  0
LINE
  5
8AD
330
1D
100
AcDbEntity
  8
CSLAYER10
  6
Continuous
100
AcDbLine
 10
530.0
 20
130.3
 30
0.0
 11
530.517638
 21
128.368148
 31
0.0
  0
TEXT
  5
8AE
330
1D
100
AcDbEntity
  8
CSLAYER10
100
AcDbText
 10
516.0
 20
229.500015
 30
0.0
 40
4.0
  1
44
 50
90.0
 41
0.681818181818
  7
FX_FONT
 72
     5
 11
516.0
 21
234.500015
 31
0.0
100
AcDbText
  0
LINE
  5
8AF
330
1D
100
AcDbEntity
  8
CSLAYER10
  6
Continuous
100
AcDbLine
 10
481.958285
 20
210.0
 30
0.0
 11
518.0
 21
210.0
 31
0.0
  0
LINE
  5
8B0
102
{ACAD_REACTORS
330
ECE
102
}
330
1D
100
AcDbEntity
  8
CSLAYER10
  6
Continuous
100
AcDbLine
 10
481.539589
 20
254.0
 30
0.0
 11
518.0
 21
254.0
 31
0.0
  0
LINE
  5
8B1
330
1D
100
AcDbEntity
  8
CSLAYER10
  6
Continuous
100
AcDbLine
 10
517.0
 20
210.0
 30
0.0
 11
517.0
 21
254.0
 31
0.0
  0
LINE
  5
8B2
330
1D
100
AcDbEntity
  8
CSLAYER10
  6
Continuous
100
AcDbLine
 10
517.0
 20
210.0
 30
0.0
 11
516.482362
 21
211.931852
 31
0.0
  0
LINE
  5
8B3
330
1D
100
AcDbEntity
  8
CSLAYER10
  6
Continuous
100
AcDbLine
 10
517.0
 20
210.0
 30
0.0
 11
517.517638
 21
211.931852
 31
0.0
  0
LINE
  5
8B4
330
1D
100
AcDbEntity
  8
CSLAYER10
  6
Continuous
100
AcDbLine
 10
517.0
 20
254.0
 30
0.0
 11
516.482362
 21
252.068148
 31
0.0
  0
LINE
  5
8B5
330
1D
100
AcDbEntity
  8
CSLAYER10
  6
Continuous
100
AcDbLine
 10
517.0
 20
254.0
 30
0.0
 11
517.517638
 21
252.068148
 31
0.0
  0
TEXT
  5
8C4
330
1D
100
AcDbEntity
  8
CSLAYER10
100
AcDbText
 10
413.452911
 20
346.999969
 30
0.0
 40
4.0
  1
2-4mmネジ用穴
 41
0.708041958042
  7
FX_FONT
 72
     5
 11
440.452911
 21
346.999969
 31
0.0
100
AcDbText
  0
LINE
  5
8C5
102
{ACAD_REACTORS
330
9E1
102
}
330
1D
100
AcDbEntity
  8
CSLAYER10
  6
Continuous
100
AcDbLine
 10
422.0
 20
326.0
 30
0.0
 11
410.452995
 21
346.0
 31
0.0
  0
LINE
  5
8C6
330
1D
100
AcDbEntity
  8
CSLAYER10
  6
Continuous
100
AcDbLine
 10
422.0
 20
326.0
 30
0.0
 11
420.585786
 21
327.414214
 31
0.0
  0
LINE
  5
8C7
330
1D
100
AcDbEntity
  8
CSLAYER10
  6
Continuous
100
AcDbLine
 10
422.0
 20
326.0
 30
0.0
 11
421.482362
 21
327.931852
 31
0.0
  0
LINE
  5
8C8
330
1D
100
AcDbEntity
  8
CSLAYER10
  6
Continuous
100
AcDbLine
 10
410.452995
 20
346.0
 30
0.0
 11
443.452995
 21
346.0
 31
0.0
  0
ARC
  5
8C9
102
{ACAD_REACTORS
330
9E1
102
}
330
1D
100
AcDbEntity
  8
CSLAYER10
  6
Continuous
100
AcDbCircle
 10
420.687096
 20
316.351474
 30
0.0
 40
1.269169
100
AcDbArc
 50
26.853623
 51
122.777266
  0
ARC
  5
8CA
102
{ACAD_REACTORS
330
9E1
330
9E8
102
}
330
1D
100
AcDbEntity
  8
CSLAYER10
  6
Continuous
100
AcDbCircle
 10
422.92423
 20
317.484161
 30
0.0
 40
1.238369
100
AcDbArc
 50
206.853623
 51
270.287245
  0
ARC
  5
8CB
102
{ACAD_REACTORS
330
9E8
102
}
330
1D
100
AcDbEntity
  8
CSLAYER10
  6
Continuous
100
AcDbCircle
 10
422.936317
 20
315.073156
 30
0.0
 40
1.172666
100
AcDbArc
 50
24.897317
 51
90.287245
  0
TEXT
  5
8CC
330
1D
100
AcDbEntity
  8
CSLAYER10
100
AcDbText
 10
372.0
 20
256.5
 30
0.0
 40
4.0
  1
130
 50
90.0
 41
0.811623246493
  7
FX_FONT
 72
     5
 11
372.0
 21
265.5
 31
0.0
100
AcDbText
  0
LINE
  5
8CE
330
1D
100
AcDbEntity
  8
CSLAYER10
  6
Continuous
100
AcDbLine
 10
373.0
 20
326.0
 30
0.0
 11
372.482362
 21
324.068148
 31
0.0
  0
LINE
  5
8CF
330
1D
100
AcDbEntity
  8
CSLAYER10
  6
Continuous
100
AcDbLine
 10
373.0
 20
326.0
 30
0.0
 11
373.517638
 21
324.068148
 31
0.0
  0
TEXT
  5
8D2
330
1D
100
AcDbEntity
  8
CSLAYER10
100
AcDbText
 10
362.0
 20
256.5
 30
0.0
 40
4.0
  1
150
 50
90.0
 41
0.809595202399
  7
FX_FONT
 72
     5
 11
362.0
 21
265.5
 31
0.0
100
AcDbText
  0
LINE
  5
8D3
330
1D
100
AcDbEntity
  8
CSLAYER10
  6
Continuous
100
AcDbLine
 10
363.0
 20
186.0
 30
0.0
 11
363.0
 21
336.0
 31
0.0
  0
LINE
  5
8D4
330
1D
100
AcDbEntity
  8
CSLAYER10
  6
Continuous
100
AcDbLine
 10
363.0
 20
186.0
 30
0.0
 11
362.482362
 21
187.931852
 31
0.0
  0
LINE
  5
8D5
330
1D
100
AcDbEntity
  8
CSLAYER10
  6
Continuous
100
AcDbLine
 10
363.0
 20
186.0
 30
0.0
 11
363.517638
 21
187.931852
 31
0.0
  0
LINE
  5
8D6
330
1D
100
AcDbEntity
  8
CSLAYER10
  6
Continuous
100
AcDbLine
 10
363.0
 20
336.0
 30
0.0
 11
362.482362
 21
334.068148
 31
0.0
  0
LINE
  5
8D7
330
1D
100
AcDbEntity
  8
CSLAYER10
  6
Continuous
100
AcDbLine
 10
363.0
 20
336.0
 30
0.0
 11
363.517638
 21
334.068148
 31
0.0
  0
TEXT
  5
8D8
330
1D
100
AcDbEntity
  8
CSLAYER10
100
AcDbText
 10
382.0
 20
216.249985
 30
0.0
 40
4.0
  1
52.5
 50
90.0
 41
0.781193490054
  7
FX_FONT
 72
     5
 11
382.0
 21
228.249985
 31
0.0
100
AcDbText
  0
LINE
  5
8D9
330
1D
100
AcDbEntity
  8
CSLAYER10
  6
Continuous
100
AcDbLine
 10
428.5
 20
196.0
 30
0.0
 11
372.0
 21
196.0
 31
0.0
  0
LINE
  5
8DA
330
1D
100
AcDbEntity
  8
CSLAYER10
  6
Continuous
100
AcDbLine
 10
387.0
 20
248.5
 30
0.0
 11
382.0
 21
248.5
 31
0.0
  0
LINE
  5
8DB
330
1D
100
AcDbEntity
  8
CSLAYER10
  6
Continuous
100
AcDbLine
 10
383.0
 20
273.5
 30
0.0
 11
383.0
 21
326.0
 31
0.0
  0
LINE
  5
8DC
330
1D
100
AcDbEntity
  8
CSLAYER10
  6
Continuous
100
AcDbLine
 10
383.0
 20
196.0
 30
0.0
 11
382.482362
 21
197.931852
 31
0.0
  0
LINE
  5
8DD
330
1D
100
AcDbEntity
  8
CSLAYER10
  6
Continuous
100
AcDbLine
 10
383.0
 20
196.0
 30
0.0
 11
383.517638
 21
197.931852
 31
0.0
  0
LINE
  5
8DE
330
1D
100
AcDbEntity
  8
CSLAYER10
  6
Continuous
100
AcDbLine
 10
383.0
 20
248.5
 30
0.0
 11
382.482362
 21
246.568148
 31
0.0
  0
LINE
  5
8DF
330
1D
100
AcDbEntity
  8
CSLAYER10
  6
Continuous
100
AcDbLine
 10
383.0
 20
248.5
 30
0.0
 11
383.517638
 21
246.568148
 31
0.0
  0
TEXT
  5
8E0
330
1D
100
AcDbEntity
  8
CSLAYER10
100
AcDbText
 10
372.0
 20
188.0
 30
0.0
 40
4.0
  1
10
 50
90.0
 41
0.846394984326
  7
FX_FONT
 72
     5
 11
372.0
 21
194.0
 31
0.0
100
AcDbText
  0
LINE
  5
8E1
330
1D
100
AcDbEntity
  8
CSLAYER10
  6
Continuous
100
AcDbLine
 10
419.0
 20
186.0
 30
0.0
 11
362.0
 21
186.0
 31
0.0
  0
LINE
  5
8E2
330
1D
100
AcDbEntity
  8
CSLAYER10
  6
Continuous
100
AcDbLine
 10
373.0
 20
326.0
 30
0.0
 11
373.0
 21
196.0
 31
0.0
  0
LINE
  5
8E3
330
1D
100
AcDbEntity
  8
CSLAYER10
  6
Continuous
100
AcDbLine
 10
373.0
 20
196.0
 30
0.0
 11
372.482362
 21
194.068148
 31
0.0
  0
LINE
  5
8E4
330
1D
100
AcDbEntity
  8
CSLAYER10
  6
Continuous
100
AcDbLine
 10
373.0
 20
196.0
 30
0.0
 11
373.517638
 21
194.068148
 31
0.0
  0
LINE
  5
8E5
330
1D
100
AcDbEntity
  8
CSLAYER10
  6
Continuous
100
AcDbLine
 10
373.0
 20
186.0
 30
0.0
 11
372.482362
 21
187.931852
 31
0.0
  0
LINE
  5
8E6
330
1D
100
AcDbEntity
  8
CSLAYER10
  6
Continuous
100
AcDbLine
 10
373.0
 20
186.0
 30
0.0
 11
373.517638
 21
187.931852
 31
0.0
  0
TEXT
  5
8E7
330
1D
100
AcDbEntity
  8
CSLAYER10
100
AcDbText
 10
382.0
 20
293.75
 30
0.0
 40
4.0
  1
52.5
 50
90.0
 41
0.781193490054
  7
FX_FONT
 72
     5
 11
382.0
 21
305.75
 31
0.0
100
AcDbText
  0
LINE
  5
8E8
102
{ACAD_REACTORS
330
9E1
102
}
330
1D
100
AcDbEntity
  8
CSLAYER10
  6
Continuous
100
AcDbLine
 10
428.5
 20
326.0
 30
0.0
 11
372.0
 21
326.0
 31
0.0
  0
LINE
  5
8EC
330
1D
100
AcDbEntity
  8
CSLAYER10
  6
Continuous
100
AcDbLine
 10
383.0
 20
326.0
 30
0.0
 11
382.482362
 21
324.068148
 31
0.0
  0
LINE
  5
8ED
330
1D
100
AcDbEntity
  8
CSLAYER10
  6
Continuous
100
AcDbLine
 10
383.0
 20
326.0
 30
0.0
 11
383.517638
 21
324.068148
 31
0.0
  0
TEXT
  5
8EE
330
1D
100
AcDbEntity
  8
CSLAYER10
100
AcDbText
 10
372.0
 20
328.0
 30
0.0
 40
4.0
  1
10
 50
90.0
 41
0.846394984326
  7
FX_FONT
 72
     5
 11
372.0
 21
334.0
 31
0.0
100
AcDbText
  0
LINE
  5
8EF
330
1D
100
AcDbEntity
  8
CSLAYER10
  6
Continuous
100
AcDbLine
 10
419.0
 20
336.0
 30
0.0
 11
362.0
 21
336.0
 31
0.0
  0
LINE
  5
8F1
330
1D
100
AcDbEntity
  8
CSLAYER10
  6
Continuous
100
AcDbLine
 10
373.0
 20
336.0
 30
0.0
 11
372.482362
 21
334.068148
 31
0.0
  0
LINE
  5
8F2
330
1D
100
AcDbEntity
  8
CSLAYER10
  6
Continuous
100
AcDbLine
 10
373.0
 20
336.0
 30
0.0
 11
373.517638
 21
334.068148
 31
0.0
  0
TEXT
  5
8F5
330
1D
100
AcDbEntity
  8
CSLAYER10
100
AcDbText
 10
382.0
 20
258.0
 30
0.0
 40
4.0
  1
25
 50
90.0
 41
0.818181818182
  7
FX_FONT
 72
     5
 11
382.0
 21
264.0
 31
0.0
100
AcDbText
  0
LINE
  5
8F6
330
1D
100
AcDbEntity
  8
CSLAYER10
  6
Continuous
100
AcDbLine
 10
387.0
 20
273.5
 30
0.0
 11
382.0
 21
273.5
 31
0.0
  0
LINE
  5
8FA
330
1D
100
AcDbEntity
  8
CSLAYER10
  6
Continuous
100
AcDbLine
 10
383.517638
 20
275.431852
 30
0.0
 11
383.0
 21
273.5
 31
0.0
  0
LINE
  5
8FB
330
1D
100
AcDbEntity
  8
CSLAYER10
  6
Continuous
100
AcDbLine
 10
382.482362
 20
275.431852
 30
0.0
 11
383.0
 21
273.5
 31
0.0
  0
TEXT
  5
8FC
330
1D
100
AcDbEntity
  8
CSLAYER10
100
AcDbText
 10
408.25
 20
296.535187
 30
0.0
 40
4.0
  1
17
 41
0.818181818182
  7
FX_FONT
 72
     5
 11
414.25
 21
296.535187
 31
0.0
100
AcDbText
  0
LINE
  5
8FD
330
1D
100
AcDbEntity
  8
CSLAYER10
  6
Continuous
100
AcDbLine
 10
403.0
 20
284.5
 30
0.0
 11
403.0
 21
296.535176
 31
0.0
  0
LINE
  5
8FE
330
1D
100
AcDbEntity
  8
CSLAYER10
  6
Continuous
100
AcDbLine
 10
420.0
 20
296.5
 30
0.0
 11
420.0
 21
296.535176
 31
0.0
  0
LINE
  5
8FF
330
1D
100
AcDbEntity
  8
CSLAYER10
  6
Continuous
100
AcDbLine
 10
403.0
 20
295.535176
 30
0.0
 11
420.0
 21
295.535176
 31
0.0
  0
LINE
  5
900
330
1D
100
AcDbEntity
  8
CSLAYER10
  6
Continuous
100
AcDbLine
 10
403.0
 20
295.535176
 30
0.0
 11
404.931852
 21
296.052814
 31
0.0
  0
LINE
  5
901
330
1D
100
AcDbEntity
  8
CSLAYER10
  6
Continuous
100
AcDbLine
 10
403.0
 20
295.535176
 30
0.0
 11
404.931852
 21
295.017538
 31
0.0
  0
LINE
  5
902
330
1D
100
AcDbEntity
  8
CSLAYER10
  6
Continuous
100
AcDbLine
 10
420.0
 20
295.535176
 30
0.0
 11
418.068148
 21
296.052814
 31
0.0
  0
LINE
  5
903
330
1D
100
AcDbEntity
  8
CSLAYER10
  6
Continuous
100
AcDbLine
 10
420.0
 20
295.535176
 30
0.0
 11
418.068148
 21
295.017538
 31
0.0
  0
TEXT
  5
904
330
1D
100
AcDbEntity
  8
CSLAYER10
100
AcDbText
 10
392.0
 20
270.5
 30
0.0
 40
4.0
  1
20
 50
90.0
 41
0.846394984326
  7
FX_FONT
 72
     5
 11
392.0
 21
276.5
 31
0.0
100
AcDbText
  0
LINE
  5
905
330
1D
100
AcDbEntity
  8
CSLAYER10
  6
Continuous
100
AcDbLine
 10
402.0
 20
263.5
 30
0.0
 11
392.0
 21
263.5
 31
0.0
  0
LINE
  5
906
330
1D
100
AcDbEntity
  8
CSLAYER10
  6
Continuous
100
AcDbLine
 10
402.0
 20
283.5
 30
0.0
 11
392.0
 21
283.5
 31
0.0
  0
LINE
  5
907
330
1D
100
AcDbEntity
  8
CSLAYER10
  6
Continuous
100
AcDbLine
 10
393.0
 20
263.5
 30
0.0
 11
393.0
 21
283.5
 31
0.0
  0
LINE
  5
908
330
1D
100
AcDbEntity
  8
CSLAYER10
  6
Continuous
100
AcDbLine
 10
393.0
 20
263.5
 30
0.0
 11
392.482362
 21
265.431852
 31
0.0
  0
LINE
  5
909
330
1D
100
AcDbEntity
  8
CSLAYER10
  6
Continuous
100
AcDbLine
 10
393.0
 20
263.5
 30
0.0
 11
393.517638
 21
265.431852
 31
0.0
  0
LINE
  5
90A
330
1D
100
AcDbEntity
  8
CSLAYER10
  6
Continuous
100
AcDbLine
 10
393.0
 20
283.5
 30
0.0
 11
392.482362
 21
281.568148
 31
0.0
  0
LINE
  5
90B
330
1D
100
AcDbEntity
  8
CSLAYER10
  6
Continuous
100
AcDbLine
 10
393.0
 20
283.5
 30
0.0
 11
393.517638
 21
281.568148
 31
0.0
  0
TEXT
  5
90C
330
1D
100
AcDbEntity
  8
CSLAYER10
100
AcDbText
 10
519.290161
 20
347.0
 30
0.0
 40
4.0
  1
%%c32貫通穴
 41
0.710526315789
  7
FX_FONT
 72
     5
 11
537.290161
 21
347.0
 31
0.0
100
AcDbText
  0
LINE
  5
90D
102
{ACAD_REACTORS
330
EC6
102
}
330
1D
100
AcDbEntity
  8
CSLAYER10
  6
Continuous
100
AcDbLine
 10
498.0
 20
310.856406
 30
0.0
 11
482.0
 21
283.143594
 31
0.0
  0
LINE
  5
90E
330
1D
100
AcDbEntity
  8
CSLAYER10
  6
Continuous
100
AcDbLine
 10
498.0
 20
310.856406
 30
0.0
 11
497.482362
 21
308.924555
 31
0.0
  0
LINE
  5
90F
330
1D
100
AcDbEntity
  8
CSLAYER10
  6
Continuous
100
AcDbLine
 10
498.0
 20
310.856406
 30
0.0
 11
496.585786
 21
309.442193
 31
0.0
  0
LINE
  5
910
330
1D
100
AcDbEntity
  8
CSLAYER10
  6
Continuous
100
AcDbLine
 10
482.0
 20
283.143594
 30
0.0
 11
482.517638
 21
285.075445
 31
0.0
  0
LINE
  5
911
330
1D
100
AcDbEntity
  8
CSLAYER10
  6
Continuous
100
AcDbLine
 10
482.0
 20
283.143594
 30
0.0
 11
483.414214
 21
284.557807
 31
0.0
  0
LINE
  5
912
330
1D
100
AcDbEntity
  8
CSLAYER10
  6
Continuous
100
AcDbLine
 10
498.0
 20
310.856406
 30
0.0
 11
518.290163
 21
346.0
 31
0.0
  0
LINE
  5
913
330
1D
100
AcDbEntity
  8
CSLAYER10
  6
Continuous
100
AcDbLine
 10
518.290163
 20
346.0
 30
0.0
 11
538.290163
 21
346.0
 31
0.0
  0
TEXT
  5
914
330
1D
100
AcDbEntity
  8
CSLAYER10
100
AcDbText
 10
453.0
 20
216.0
 30
0.0
 40
4.0
  1
%%c30貫通穴
 41
0.710370532778
  7
FX_FONT
 72
     5
 11
471.0
 21
216.0
 31
0.0
100
AcDbText
  0
LINE
  5
916
330
1D
100
AcDbEntity
  8
CSLAYER10
  6
Continuous
100
AcDbLine
 10
479.393398
 20
221.393398
 30
0.0
 11
480.393398
 21
223.125449
 31
0.0
  0
LINE
  5
917
330
1D
100
AcDbEntity
  8
CSLAYER10
  6
Continuous
100
AcDbLine
 10
479.393398
 20
221.393398
 30
0.0
 11
481.125449
 21
222.393398
 31
0.0
  0
LINE
  5
918
330
1D
100
AcDbEntity
  8
CSLAYER10
  6
Continuous
100
AcDbLine
 10
500.606602
 20
242.606602
 30
0.0
 11
499.606602
 21
240.874551
 31
0.0
  0
LINE
  5
919
330
1D
100
AcDbEntity
  8
CSLAYER10
  6
Continuous
100
AcDbLine
 10
500.606602
 20
242.606602
 30
0.0
 11
498.874551
 21
241.606602
 31
0.0
  0
LINE
  5
91A
102
{ACAD_REACTORS
330
ECA
102
}
330
1D
100
AcDbEntity
  8
CSLAYER10
  6
Continuous
100
AcDbLine
 10
500.606602
 20
242.606602
 30
0.0
 11
473.0
 21
215.0
 31
0.0
  0
LINE
  5
91B
330
1D
100
AcDbEntity
  8
CSLAYER10
  6
Continuous
100
AcDbLine
 10
473.0
 20
215.0
 30
0.0
 11
451.0
 21
215.0
 31
0.0
  0
TEXT
  5
91C
330
1D
100
AcDbEntity
  8
CSLAYER10
100
AcDbText
 10
536.0
 20
195.0
 30
0.0
 40
4.0
  1
23
 50
90.0
 41
0.681818181818
  7
FX_FONT
 72
     5
 11
536.0
 21
200.0
 31
0.0
100
AcDbText
  0
LINE
  5
91D
330
1D
100
AcDbEntity
  8
CSLAYER10
  6
Continuous
100
AcDbLine
 10
537.0
 20
209.0
 30
0.0
 11
537.0
 21
313.0
 31
0.0
  0
LINE
  5
91E
330
1D
100
AcDbEntity
  8
CSLAYER10
  6
Continuous
100
AcDbLine
 10
537.0
 20
186.0
 30
0.0
 11
536.482362
 21
187.931852
 31
0.0
  0
LINE
  5
91F
330
1D
100
AcDbEntity
  8
CSLAYER10
  6
Continuous
100
AcDbLine
 10
537.0
 20
186.0
 30
0.0
 11
537.517638
 21
187.931852
 31
0.0
  0
LINE
  5
920
330
1D
100
AcDbEntity
  8
CSLAYER10
  6
Continuous
100
AcDbLine
 10
537.517638
 20
210.931852
 30
0.0
 11
537.0
 21
209.0
 31
0.0
  0
LINE
  5
921
330
1D
100
AcDbEntity
  8
CSLAYER10
  6
Continuous
100
AcDbLine
 10
536.482362
 20
210.931852
 30
0.0
 11
537.0
 21
209.0
 31
0.0
  0
LINE
  5
922
330
1D
100
AcDbEntity
  8
CSLAYER10
  6
Continuous
100
AcDbLine
 10
425.0
 20
186.0
 30
0.0
 11
538.0
 21
186.0
 31
0.0
  0
LINE
  5
923
330
1D
100
AcDbEntity
  8
CSLAYER10
  6
Continuous
100
AcDbLine
 10
506.0
 20
209.0
 30
0.0
 11
538.0
 21
209.0
 31
0.0
  0
TEXT
  5
924
330
1D
100
AcDbEntity
  8
CSLAYER10
100
AcDbText
 10
536.0
 20
257.25
 30
0.0
 40
4.0
  1
104
 50
90.0
 41
0.661440470358
  7
FX_FONT
 72
     5
 11
536.0
 21
264.75
 31
0.0
100
AcDbText
  0
LINE
  5
928
330
1D
100
AcDbEntity
  8
CSLAYER10
  6
Continuous
100
AcDbLine
 10
537.0
 20
313.0
 30
0.0
 11
536.482362
 21
311.068148
 31
0.0
  0
LINE
  5
929
330
1D
100
AcDbEntity
  8
CSLAYER10
  6
Continuous
100
AcDbLine
 10
537.0
 20
313.0
 30
0.0
 11
537.517638
 21
311.068148
 31
0.0
  0
LINE
  5
92A
330
1D
100
AcDbEntity
  8
CSLAYER10
  6
Continuous
100
AcDbLine
 10
506.0
 20
313.0
 30
0.0
 11
538.0
 21
313.0
 31
0.0
  0
TEXT
  5
92B
330
1D
100
AcDbEntity
  8
CSLAYER10
100
AcDbText
 10
536.0
 20
322.0
 30
0.0
 40
4.0
  1
23
 50
90.0
 41
0.681818181818
  7
FX_FONT
 72
     5
 11
536.0
 21
327.0
 31
0.0
100
AcDbText
  0
LINE
  5
92F
330
1D
100
AcDbEntity
  8
CSLAYER10
  6
Continuous
100
AcDbLine
 10
537.0
 20
336.0
 30
0.0
 11
536.482362
 21
334.068148
 31
0.0
  0
LINE
  5
930
330
1D
100
AcDbEntity
  8
CSLAYER10
  6
Continuous
100
AcDbLine
 10
537.0
 20
336.0
 30
0.0
 11
537.517638
 21
334.068148
 31
0.0
  0
LINE
  5
931
330
1D
100
AcDbEntity
  8
CSLAYER10
  6
Continuous
100
AcDbLine
 10
425.0
 20
336.0
 30
0.0
 11
538.0
 21
336.0
 31
0.0
  0
TEXT
  5
932
330
1D
100
AcDbEntity
  8
CSLAYER10
100
AcDbText
 10
526.0
 20
218.0
 30
0.0
 40
4.0
  1
23
 50
90.0
 41
0.681818181818
  7
FX_FONT
 72
     5
 11
526.0
 21
223.0
 31
0.0
100
AcDbText
  0
LINE
  5
933
330
1D
100
AcDbEntity
  8
CSLAYER10
  6
Continuous
100
AcDbLine
 10
527.0
 20
232.0
 30
0.0
 11
527.0
 21
297.0
 31
0.0
  0
LINE
  5
934
330
1D
100
AcDbEntity
  8
CSLAYER10
  6
Continuous
100
AcDbLine
 10
527.0
 20
209.0
 30
0.0
 11
526.482362
 21
210.931852
 31
0.0
  0
LINE
  5
935
330
1D
100
AcDbEntity
  8
CSLAYER10
  6
Continuous
100
AcDbLine
 10
527.0
 20
209.0
 30
0.0
 11
527.517638
 21
210.931852
 31
0.0
  0
LINE
  5
936
330
1D
100
AcDbEntity
  8
CSLAYER10
  6
Continuous
100
AcDbLine
 10
527.517638
 20
233.931852
 30
0.0
 11
527.0
 21
232.0
 31
0.0
  0
LINE
  5
937
330
1D
100
AcDbEntity
  8
CSLAYER10
  6
Continuous
100
AcDbLine
 10
526.482362
 20
233.931852
 30
0.0
 11
527.0
 21
232.0
 31
0.0
  0
LINE
  5
938
330
1D
100
AcDbEntity
  8
CSLAYER10
  6
Continuous
100
AcDbLine
 10
518.0
 20
232.0
 30
0.0
 11
528.0
 21
232.0
 31
0.0
  0
TEXT
  5
939
330
1D
100
AcDbEntity
  8
CSLAYER10
100
AcDbText
 10
526.0
 20
262.0
 30
0.0
 40
4.0
  1
65
 50
90.0
 41
0.679245283019
  7
FX_FONT
 72
     5
 11
526.0
 21
267.0
 31
0.0
100
AcDbText
  0
LINE
  5
93D
330
1D
100
AcDbEntity
  8
CSLAYER10
  6
Continuous
100
AcDbLine
 10
527.0
 20
297.0
 30
0.0
 11
526.482362
 21
295.068148
 31
0.0
  0
LINE
  5
93E
330
1D
100
AcDbEntity
  8
CSLAYER10
  6
Continuous
100
AcDbLine
 10
527.0
 20
297.0
 30
0.0
 11
527.517638
 21
295.068148
 31
0.0
  0
LINE
  5
93F
102
{ACAD_REACTORS
330
EC6
102
}
330
1D
100
AcDbEntity
  8
CSLAYER10
  6
Continuous
100
AcDbLine
 10
468.0
 20
297.0
 30
0.0
 11
528.0
 21
297.0
 31
0.0
  0
TEXT
  5
940
330
1D
100
AcDbEntity
  8
CSLAYER10
100
AcDbText
 10
526.0
 20
302.5
 30
0.0
 40
4.0
  1
16
 50
90.0
 41
0.681818181818
  7
FX_FONT
 72
     5
 11
526.0
 21
307.5
 31
0.0
100
AcDbText
  0
LINE
  5
944
330
1D
100
AcDbEntity
  8
CSLAYER10
  6
Continuous
100
AcDbLine
 10
527.0
 20
313.0
 30
0.0
 11
526.482362
 21
311.068148
 31
0.0
  0
LINE
  5
945
330
1D
100
AcDbEntity
  8
CSLAYER10
  6
Continuous
100
AcDbLine
 10
527.0
 20
313.0
 30
0.0
 11
527.517638
 21
311.068148
 31
0.0
  0
TEXT
  5
946
330
1D
100
AcDbEntity
  8
CSLAYER10
100
AcDbText
 10
460.0
 20
155.0
 30
0.0
 40
4.0
  1
85
 41
0.681818181818
  7
FX_FONT
 72
     5
 11
465.0
 21
155.0
 31
0.0
100
AcDbText
  0
LINE
  5
947
330
1D
100
AcDbEntity
  8
CSLAYER10
  6
Continuous
100
AcDbLine
 10
420.0
 20
154.0
 30
0.0
 11
505.0
 21
154.0
 31
0.0
  0
LINE
  5
948
330
1D
100
AcDbEntity
  8
CSLAYER10
  6
Continuous
100
AcDbLine
 10
420.0
 20
154.0
 30
0.0
 11
421.931852
 21
154.517638
 31
0.0
  0
LINE
  5
949
330
1D
100
AcDbEntity
  8
CSLAYER10
  6
Continuous
100
AcDbLine
 10
420.0
 20
154.0
 30
0.0
 11
421.931852
 21
153.482362
 31
0.0
  0
LINE
  5
94A
330
1D
100
AcDbEntity
  8
CSLAYER10
  6
Continuous
100
AcDbLine
 10
505.0
 20
154.0
 30
0.0
 11
503.068148
 21
154.517638
 31
0.0
  0
LINE
  5
94B
330
1D
100
AcDbEntity
  8
CSLAYER10
  6
Continuous
100
AcDbLine
 10
505.0
 20
154.0
 30
0.0
 11
503.068148
 21
153.482362
 31
0.0
  0
LINE
  5
94C
330
1D
100
AcDbEntity
  8
CSLAYER10
  6
Continuous
100
AcDbLine
 10
420.0
 20
185.0
 30
0.0
 11
420.0
 21
153.0
 31
0.0
  0
LINE
  5
94D
330
1D
100
AcDbEntity
  8
CSLAYER10
  6
Continuous
100
AcDbLine
 10
505.0
 20
208.0
 30
0.0
 11
505.0
 21
153.0
 31
0.0
  0
TEXT
  5
94E
330
1D
100
AcDbEntity
  8
CSLAYER10
100
AcDbText
 10
452.5
 20
165.0
 30
0.0
 40
4.0
  1
70
 41
0.705329153605
  7
FX_FONT
 72
     5
 11
457.5
 21
165.0
 31
0.0
100
AcDbText
  0
LINE
  5
94F
330
1D
100
AcDbEntity
  8
CSLAYER10
  6
Continuous
100
AcDbLine
 10
420.0
 20
164.0
 30
0.0
 11
490.0
 21
164.0
 31
0.0
  0
LINE
  5
950
330
1D
100
AcDbEntity
  8
CSLAYER10
  6
Continuous
100
AcDbLine
 10
420.0
 20
164.0
 30
0.0
 11
421.931852
 21
164.517638
 31
0.0
  0
LINE
  5
951
330
1D
100
AcDbEntity
  8
CSLAYER10
  6
Continuous
100
AcDbLine
 10
420.0
 20
164.0
 30
0.0
 11
421.931852
 21
163.482362
 31
0.0
  0
LINE
  5
952
330
1D
100
AcDbEntity
  8
CSLAYER10
  6
Continuous
100
AcDbLine
 10
490.0
 20
164.0
 30
0.0
 11
488.068148
 21
164.517638
 31
0.0
  0
LINE
  5
953
330
1D
100
AcDbEntity
  8
CSLAYER10
  6
Continuous
100
AcDbLine
 10
490.0
 20
164.0
 30
0.0
 11
488.068148
 21
163.482362
 31
0.0
  0
LINE
  5
954
330
1D
100
AcDbEntity
  8
CSLAYER10
  6
Continuous
100
AcDbLine
 10
490.0
 20
170.266252534736
 30
0.0
 11
490.0
 21
163.0
 31
0.0
  0
TEXT
  5
955
330
1D
100
AcDbEntity
  8
CSLAYER10
100
AcDbText
 10
495.0
 20
165.0
 30
0.0
 40
4.0
  1
15
 41
0.681818181818
  7
FX_FONT
 72
     5
 11
500.0
 21
165.0
 31
0.0
100
AcDbText
  0
LINE
  5
959
330
1D
100
AcDbEntity
  8
CSLAYER10
  6
Continuous
100
AcDbLine
 10
505.0
 20
164.0
 30
0.0
 11
503.068148
 21
164.517638
 31
0.0
  0
LINE
  5
95A
330
1D
100
AcDbEntity
  8
CSLAYER10
  6
Continuous
100
AcDbLine
 10
505.0
 20
164.0
 30
0.0
 11
503.068148
 21
163.482362
 31
0.0
  0
TEXT
  5
95B
330
1D
100
AcDbEntity
  8
CSLAYER10
100
AcDbText
 10
426.75
 20
175.0
 30
0.0
 40
4.0
  1
4
 41
0.75
  7
FX_FONT
 72
     5
 11
429.25
 21
175.0
 31
0.0
100
AcDbText
  0
LINE
  5
95D
330
1D
100
AcDbEntity
  8
CSLAYER10
  6
Continuous
100
AcDbLine
 10
424.0
 20
185.0
 30
0.0
 11
424.0
 21
173.0
 31
0.0
  0
LINE
  5
95E
330
1D
100
AcDbEntity
  8
CSLAYER10
  6
Continuous
100
AcDbLine
 10
415.0
 20
174.0
 30
0.0
 11
432.0
 21
174.0
 31
0.0
  0
LINE
  5
95F
330
1D
100
AcDbEntity
  8
CSLAYER10
  6
Continuous
100
AcDbLine
 10
420.0
 20
174.0
 30
0.0
 11
418.068148
 21
174.517638
 31
0.0
  0
LINE
  5
960
330
1D
100
AcDbEntity
  8
CSLAYER10
  6
Continuous
100
AcDbLine
 10
420.0
 20
174.0
 30
0.0
 11
418.068148
 21
173.482362
 31
0.0
  0
LINE
  5
962
330
1D
100
AcDbEntity
  8
CSLAYER10
  6
Continuous
100
AcDbLine
 10
424.0
 20
174.0
 30
0.0
 11
425.931852
 21
174.517638
 31
0.0
  0
LINE
  5
963
330
1D
100
AcDbEntity
  8
CSLAYER10
  6
Continuous
100
AcDbLine
 10
424.0
 20
174.0
 30
0.0
 11
425.931852
 21
173.482362
 31
0.0
  0
TEXT
  5
964
330
1D
100
AcDbEntity
  8
CSLAYER10
100
AcDbText
 10
457.994446
 20
198.0
 30
0.0
 40
4.0
  1
※ 2-%%c10貫通穴
 41
0.592024119501
  7
FX_FONT
 72
     5
 11
481.994446
 21
198.0
 31
0.0
100
AcDbText
  0
LINE
  5
965
102
{ACAD_REACTORS
330
ECE
102
}
330
1D
100
AcDbEntity
  8
CSLAYER10
  6
Continuous
100
AcDbLine
 10
487.5
 20
205.669873
 30
0.0
 11
492.5
 21
214.330127
 31
0.0
  0
LINE
  5
966
330
1D
100
AcDbEntity
  8
CSLAYER10
  6
Continuous
100
AcDbLine
 10
487.5
 20
205.669873
 30
0.0
 11
488.017638
 21
207.601725
 31
0.0
  0
LINE
  5
967
330
1D
100
AcDbEntity
  8
CSLAYER10
  6
Continuous
100
AcDbLine
 10
487.5
 20
205.669873
 30
0.0
 11
488.914214
 21
207.084087
 31
0.0
  0
LINE
  5
968
102
{ACAD_REACTORS
330
ECE
102
}
330
1D
100
AcDbEntity
  8
CSLAYER10
  6
Continuous
100
AcDbLine
 10
492.5
 20
214.330127
 30
0.0
 11
491.982362
 21
212.398275
 31
0.0
  0
LINE
  5
969
102
{ACAD_REACTORS
330
ECE
102
}
330
1D
100
AcDbEntity
  8
CSLAYER10
  6
Continuous
100
AcDbLine
 10
492.5
 20
214.330127
 30
0.0
 11
491.085786
 21
212.915913
 31
0.0
  0
LINE
  5
96A
330
1D
100
AcDbEntity
  8
CSLAYER10
  6
Continuous
100
AcDbLine
 10
487.5
 20
205.669873
 30
0.0
 11
482.494447
 21
197.0
 31
0.0
  0
LINE
  5
96B
330
1D
100
AcDbEntity
  8
CSLAYER10
  6
Continuous
100
AcDbLine
 10
482.494447
 20
197.0
 30
0.0
 11
457.494447
 21
197.0
 31
0.0
  0
TEXT
  5
995
330
1D
100
AcDbEntity
  8
CSLAYER10
100
AcDbText
 10
238.925999594105
 20
348.705542165579
 30
0.0
 40
4.0
  1
A
 41
0.75
  7
FX_FONT
 72
     5
 11
241.425999594105
 21
348.705542165579
 31
0.0
100
AcDbText
  0
LINE
  5
9AD
330
1D
100
AcDbEntity
  8
CSLAYER1
100
AcDbLine
 10
87.4375
 20
185.0
 30
0.0
 11
79.533466332451
 21
185.0
 31
0.0
1001
ACAD
1000
DSTYLE
1002
{
1070
    41
1040
2.3
1070
   173
1070
     1
1070
   344
1005
9A7
1070
   343
1005
9A7
1070
   279
1070
     2
1002
}
  0
LINE
  5
9AE
330
1D
100
AcDbEntity
  8
CSLAYER1
100
AcDbLine
 10
87.4375
 20
183.5
 30
0.0
 11
79.533466332451
 21
183.5
 31
0.0
1001
ACAD
1000
DSTYLE
1002
{
1070
    41
1040
2.3
1070
   173
1070
     1
1070
   344
1005
9A7
1070
   343
1005
9A7
1070
   279
1070
     2
1002
}
  0
LINE
  5
9AF
330
1D
100
AcDbEntity
  8
CSLAYER1
100
AcDbLine
 10
79.713466332451
 20
187.3
 30
0.0
 11
79.713466332451
 21
195.643084793376
 31
0.0
1001
ACAD
1000
DSTYLE
1002
{
1070
    41
1040
2.3
1070
   173
1070
     1
1070
   344
1005
9A7
1070
   343
1005
9A7
1070
   279
1070
     2
1002
}
  0
LINE
  5
9B0
330
1D
100
AcDbEntity
  8
CSLAYER1
100
AcDbLine
 10
79.713466332451
 20
181.2
 30
0.0
 11
79.713466332451
 21
178.9
 31
0.0
1001
ACAD
1000
DSTYLE
1002
{
1070
    41
1040
2.3
1070
   173
1070
     1
1070
   344
1005
9A7
1070
   343
1005
9A7
1070
   279
1070
     2
1002
}
  0
LINE
  5
9B6
330
1D
100
AcDbEntity
  8
CSLAYER1
100
AcDbLine
 10
79.713466332451
 20
183.5
 30
0.0
 11
79.713466332451
 21
185.0
 31
0.0
  0
TEXT
  5
9E0
330
1D
100
AcDbEntity
  8
CSLAYER10
100
AcDbText
 10
77.792277551295
 20
184.560356516674
 30
0.0
 40
4.0
  1
1.5
 50
90.0
 41
0.882352941176
  7
FX_FONT
 72
     5
 11
77.792277551295
 21
194.560356516674
 31
0.0
100
AcDbText
  0
HATCH
  5
9E1
102
{ACAD_XDICTIONARY
360
9E5
102
}
330
1D
100
AcDbEntity
  8
CSLAYER10
100
AcDbHatch
 10
0.0
 20
0.0
 30
0.0
210
0.0
220
0.0
230
1.0
  2
_USER
 70
     0
 71
     1
 91
        3
 92
        7
 72
     0
 73
     1
 93
        4
 10
422.0
 20
326.0
 10
422.0
 20
336.0
 10
420.0
 20
336.0
 10
420.0
 20
329.4641017302755
 97
        4
330
475
330
474
330
471
330
8C5
 92
        7
 72
     0
 73
     1
 93
        3
 10
422.0
 20
326.0
 10
420.0
 20
329.4641017302755
 10
420.0
 20
326.0
 97
        3
330
8C5
330
471
330
8E8
 92
        7
 72
     1
 73
     1
 93
        7
 10
421.8194024377908
 20
316.9247739801793
 42
0.0649871714423232
 10
422.0
 20
316.6599300328185
 42
0.0
 10
422.0
 20
326.0
 42
0.0
 10
420.0
 20
326.0
 42
0.0
 10
420.0
 20
317.4185677876685
 42
0.0
 10
420.0000000832022
 20
317.4185677876685
 42
-0.4448295303698425
 10
421.8194021965388
 20
316.9247737713595
 42
0.0
 97
        5
330
8CA
330
475
330
8E8
330
471
330
8C9
 75
     0
 76
     0
 52
45.0
 41
1.0
 77
     0
 78
     1
 53
45.0
 43
0.0
 44
0.0
 45
-0.7071067811865475
 46
0.7071067811865476
 79
     0
 47
0.0
 98
        3
 10
421.340421050655
 20
331.6660482737474
 10
420.1964702366889
 20
327.5478253434696
 10
420.9209724188674
 20
323.2770756379963
1001
ACAD
1010
0.0
1020
0.0
1030
0.0
1001
AcadAnnotative
1000
AnnotativeData
1002
{
1070
     1
1070
     0
1002
}
  0
HATCH
  5
9E8
102
{ACAD_XDICTIONARY
360
9E9
102
}
330
1D
100
AcDbEntity
  8
CSLAYER10
100
AcDbHatch
 10
0.0
 20
0.0
 30
0.0
210
0.0
220
0.0
230
1.0
  2
_USER
 70
     0
 71
     1
 91
        2
 92
        7
 72
     0
 73
     1
 93
        5
 10
422.0
 20
336.0
 10
422.0
 20
330.4
 10
423.4
 20
329.0
 10
424.0
 20
329.0
 10
424.0
 20
336.0
 97
        5
330
475
330
532
330
533
330
473
330
474
 92
        7
 72
     1
 73
     1
 93
        8
 10
424.0
 20
323.0
 42
0.0
 10
423.4
 20
323.0
 42
0.0
 10
422.0
 20
321.6
 42
0.0
 10
422.0
 20
316.6599300328185
 42
0.2151143707467365
 10
422.9304383772373
 20
316.2458075624818
 42
0.0
 10
422.9304380148983
 20
316.2458072632024
 42
-0.2933202629740032
 10
423.9999997950876
 20
315.5668405743899
 42
0.0
 10
424.0
 20
315.5668401328895
 42
0.0
 97
        6
330
530
330
52F
330
475
330
8CA
330
8CB
330
473
 75
     0
 76
     0
 52
135.0
 41
0.5
 77
     0
 78
     1
 53
135.0
 43
0.0
 44
0.0
 45
-0.3535533905932738
 46
-0.3535533905932737
 79
     0
 47
0.0
 98
        2
 10
422.9800838840063
 20
332.5049455373225
 10
423.3995325157939
 20
319.2732477891151
1001
ACAD
1010
0.0
1020
0.0
1030
0.0
1001
AcadAnnotative
1000
AnnotativeData
1002
{
1070
     1
1070
     0
1002
}
  0
LINE
  5
A5F
330
1D
100
AcDbEntity
  8
CSLAYER10
  6
Continuous
100
AcDbLine
 10
86.878357111382
 20
50.731474542942
 30
0.0
 11
174.43542843824
 21
50.731474542942
 31
0.0
  0
LINE
  5
A63
330
1D
100
AcDbEntity
  8
CSLAYER10
  6
Continuous
100
AcDbLine
 10
86.913917111382
 20
82.731474542942
 30
0.0
 11
174.43542843824
 21
82.731474542942
 31
0.0
  0
LINE
  5
A64
330
1D
100
AcDbEntity
  8
CSLAYER10
  6
Continuous
100
AcDbLine
 10
111.913917111382
 20
50.731474542942
 30
0.0
 11
111.913917111382
 21
106.731474542942
 31
0.0
  0
TEXT
  5
A66
330
1D
100
AcDbEntity
  8
CSLAYER10
  6
Continuous
100
AcDbText
 10
119.089042588347
 20
84.202607215304
 30
0.0
 40
4.0
  1
高さ(H)
 41
0.89552238806
  7
FX_FONT
 72
     5
 11
137.089042588347
 21
84.202607215304
 31
0.0
100
AcDbText
  0
TEXT
  5
A67
330
1D
100
AcDbEntity
  8
CSLAYER10
  6
Continuous
100
AcDbText
 10
149.725964443037
 20
84.67831730372
 30
0.0
 40
4.0
  1
直径(D)
 41
0.89552238806
  7
FX_FONT
 72
     5
 11
167.725964443037
 21
84.67831730372
 31
0.0
100
AcDbText
  0
TEXT
  5
A68
330
1D
100
AcDbEntity
  8
CSLAYER10
  6
Continuous
100
AcDbText
 10
122.010584745031
 20
75.89390743979
 30
0.0
 40
4.0
  1
23.5
 41
0.652173913043
  7
FX_FONT
 72
     5
 11
132.010584745031
 21
75.89390743979
 31
0.0
100
AcDbText
  0
TEXT
  5
A69
330
1D
100
AcDbEntity
  8
CSLAYER10
  6
Continuous
100
AcDbText
 10
122.017420745031
 20
68.19399443979
 30
0.0
 40
4.0
  1
21.0
 41
0.662739322533
  7
FX_FONT
 72
     5
 11
132.017420745031
 21
68.19399443979
 31
0.0
100
AcDbText
  0
TEXT
  5
A6A
330
1D
100
AcDbEntity
  8
CSLAYER10
  6
Continuous
100
AcDbText
 10
122.010584745031
 20
60.19357543979
 30
0.0
 40
4.0
  1
18.5
 41
0.652173913043
  7
FX_FONT
 72
     5
 11
132.010584745031
 21
60.19357543979
 31
0.0
100
AcDbText
  0
TEXT
  5
A6B
330
1D
100
AcDbEntity
  8
CSLAYER10
  6
Continuous
100
AcDbText
 10
121.607996745031
 20
52.14212243979
 30
0.0
 40
4.0
  1
16.0
 41
0.661521499449
  7
FX_FONT
 72
     5
 11
131.607996745031
 21
52.14212243979
 31
0.0
100
AcDbText
  0
TEXT
  5
A6C
330
1D
100
AcDbEntity
  8
CSLAYER10
  6
Continuous
100
AcDbText
 10
151.86531059972
 20
76.560123528206
 30
0.0
 40
4.0
  1
%%C39.0
 41
0.68743232131
  7
FX_FONT
 72
     5
 11
164.988902822656
 21
76.560123528206
 31
0.0
100
AcDbText
  0
TEXT
  5
A6D
330
1D
100
AcDbEntity
  8
CSLAYER10
  6
Continuous
100
AcDbText
 10
151.86531059972
 20
68.669704528206
 30
0.0
 40
4.0
  1
%%C39.0
 41
0.68743232131
  7
FX_FONT
 72
     5
 11
164.988902822656
 21
68.669704528206
 31
0.0
100
AcDbText
  0
TEXT
  5
A6E
330
1D
100
AcDbEntity
  8
CSLAYER10
  6
Continuous
100
AcDbText
 10
151.97117559972
 20
60.266712528206
 30
0.0
 40
4.0
  1
%%C38.5
 41
0.656531284829
  7
FX_FONT
 72
     5
 11
164.664113773087
 21
60.266712528206
 31
0.0
100
AcDbText
  0
TEXT
  5
A6F
330
1D
100
AcDbEntity
  8
CSLAYER10
  6
Continuous
100
AcDbText
 10
151.86531059972
 20
52.888851528206
 30
0.0
 40
4.0
  1
%%C38.5
 41
0.662007060691
  7
FX_FONT
 72
     5
 11
164.664113773087
 21
52.888851528206
 31
0.0
100
AcDbText
  0
LINE
  5
A78
330
1D
100
AcDbEntity
  8
CSLAYER10
  6
Continuous
100
AcDbLine
 10
86.913917111382
 20
74.731474542942
 30
0.0
 11
174.43542843824
 21
74.731474542942
 31
0.0
  0
LINE
  5
A79
330
1D
100
AcDbEntity
  8
CSLAYER10
  6
Continuous
100
AcDbLine
 10
174.43542843824
 20
66.731474542942
 30
0.0
 11
86.913917111382
 21
66.731474542942
 31
0.0
  0
LINE
  5
A7A
330
1D
100
AcDbEntity
  8
CSLAYER10
  6
Continuous
100
AcDbLine
 10
86.913917111382
 20
58.731474542942
 30
0.0
 11
174.43542843824
 21
58.731474542942
 31
0.0
  0
TEXT
  5
A7D
330
1D
100
AcDbEntity
  8
CSLAYER10
  6
Continuous
100
AcDbText
 10
93.347972111382
 20
91.757476911335
 30
0.0
 40
5.0
  1
扉厚
 41
1.125
  7
FX_FONT
 72
     5
 11
105.347972111382
 21
91.757476911335
 31
0.0
100
AcDbText
  0
TEXT
  5
A7E
330
1D
100
AcDbEntity
  8
CSLAYER10
  6
Continuous
100
AcDbText
 10
88.913920111382
 20
76.731472542942
 30
0.0
 40
4.0
  1
30 ~ 38
 41
0.86996547756
  7
FX_FONT
 72
     5
 11
109.913920111382
 21
76.731472542942
 31
0.0
100
AcDbText
  0
TEXT
  5
A7F
330
1D
100
AcDbEntity
  8
CSLAYER10
  6
Continuous
100
AcDbText
 10
88.913920111382
 20
68.731480542942
 30
0.0
 40
4.0
  1
38 ~ 42
 41
0.870165745856
  7
FX_FONT
 72
     5
 11
109.913920111382
 21
68.731480542942
 31
0.0
100
AcDbText
  0
TEXT
  5
A80
330
1D
100
AcDbEntity
  8
CSLAYER10
  6
Continuous
100
AcDbText
 10
88.913920111382
 20
60.731480542942
 30
0.0
 40
4.0
  1
42 ~ 46
 41
0.870165745856
  7
FX_FONT
 72
     5
 11
109.913920111382
 21
60.731480542942
 31
0.0
100
AcDbText
  0
LINE
  5
A83
330
1D
100
AcDbEntity
  8
CSLAYER10
  6
Continuous
100
AcDbLine
 10
111.913917111382
 20
98.731474542942
 30
0.0
 11
174.43542843824
 21
98.731474542942
 31
0.0
  0
LINE
  5
A84
330
1D
100
AcDbEntity
  8
CSLAYER10
  6
Continuous
100
AcDbLine
 10
86.913917111382
 20
106.731474542942
 30
0.0
 11
174.43542843824
 21
106.731474542942
 31
0.0
  0
LINE
  5
A85
330
1D
100
AcDbEntity
  8
CSLAYER10
  6
Continuous
100
AcDbLine
 10
111.913917111382
 20
90.731474542942
 30
0.0
 11
174.43542843824
 21
90.731474542942
 31
0.0
  0
LINE
  5
A86
330
1D
100
AcDbEntity
  8
CSLAYER10
  6
Continuous
100
AcDbLine
 10
142.977374985085
 20
90.731474542942
 30
0.0
 11
142.977374985085
 21
50.731474542942
 31
0.0
  0
TEXT
  5
A88
330
1D
100
AcDbEntity
  8
CSLAYER10
  6
Continuous
100
AcDbText
 10
130.67844872274
 20
92.64543612756
 30
0.0
 40
4.0
  1
Ａ＝42.5
  7
FX_FONT
100
AcDbText
  0
LINE
  5
A89
330
1D
100
AcDbEntity
  8
CSLAYER10
  6
Continuous
100
AcDbLine
 10
182.784864985247
 20
58.731474542942
 30
0.0
 11
332.863447638962
 21
58.731474542942
 31
0.0
  0
LINE
  5
A8A
330
1D
100
AcDbEntity
  8
CSLAYER10
  6
Continuous
100
AcDbLine
 10
182.820424985247
 20
82.731474542942
 30
0.0
 11
332.863447638962
 21
82.731474542942
 31
0.0
  0
TEXT
  5
A8C
330
1D
100
AcDbEntity
  8
CSLAYER10
  6
Continuous
100
AcDbText
 10
214.995550462212
 20
84.202607215304
 30
0.0
 40
4.0
  1
高さ(H)
 41
0.89552238806
  7
FX_FONT
 72
     5
 11
232.995550462212
 21
84.202607215304
 31
0.0
100
AcDbText
  0
TEXT
  5
A8D
330
1D
100
AcDbEntity
  8
CSLAYER10
  6
Continuous
100
AcDbText
 10
245.632472316901
 20
84.67831730372
 30
0.0
 40
4.0
  1
直径(D)
 41
0.89552238806
  7
FX_FONT
 72
     5
 11
263.632472316901
 21
84.67831730372
 31
0.0
100
AcDbText
  0
TEXT
  5
A8E
330
1D
100
AcDbEntity
  8
CSLAYER10
  6
Continuous
100
AcDbText
 10
217.917092618896
 20
75.89390743979
 30
0.0
 40
4.0
  1
23.5
 41
0.652173913043
  7
FX_FONT
 72
     5
 11
227.917092618896
 21
75.89390743979
 31
0.0
100
AcDbText
  0
TEXT
  5
A8F
330
1D
100
AcDbEntity
  8
CSLAYER10
  6
Continuous
100
AcDbText
 10
217.923928618896
 20
68.19399443979
 30
0.0
 40
4.0
  1
21.0
 41
0.662739322533
  7
FX_FONT
 72
     5
 11
227.923928618896
 21
68.19399443979
 31
0.0
100
AcDbText
  0
TEXT
  5
A90
330
1D
100
AcDbEntity
  8
CSLAYER10
  6
Continuous
100
AcDbText
 10
217.917092618896
 20
60.19357543979
 30
0.0
 40
4.0
  1
16.0
 41
0.661521499449
  7
FX_FONT
 72
     5
 11
227.917092618896
 21
60.19357543979
 31
0.0
100
AcDbText
  0
TEXT
  5
A92
330
1D
100
AcDbEntity
  8
CSLAYER10
  6
Continuous
100
AcDbText
 10
247.771818473585
 20
76.560123528206
 30
0.0
 40
4.0
  1
%%C39.0
 41
0.689599186677
  7
FX_FONT
 72
     5
 11
260.936777761456
 21
76.560123528206
 31
0.0
100
AcDbText
  0
TEXT
  5
A93
330
1D
100
AcDbEntity
  8
CSLAYER10
  6
Continuous
100
AcDbText
 10
247.771818473585
 20
68.669704528206
 30
0.0
 40
4.0
  1
%%C39.0
 41
0.705533795537
  7
FX_FONT
 72
     5
 11
261.240981248012
 21
68.669704528206
 31
0.0
100
AcDbText
  0
TEXT
  5
A94
330
1D
100
AcDbEntity
  8
CSLAYER10
  6
Continuous
100
AcDbText
 10
247.877683473585
 20
60.266712528206
 30
0.0
 40
4.0
  1
%%C38.0
 41
0.703131487967
  7
FX_FONT
 72
     5
 11
261.299682321675
 21
60.266712528206
 31
0.0
100
AcDbText
  0
LINE
  5
A96
330
1D
100
AcDbEntity
  8
CSLAYER10
  6
Continuous
100
AcDbLine
 10
182.820424985247
 20
74.731474542942
 30
0.0
 11
332.863447638962
 21
74.731474542942
 31
0.0
  0
LINE
  5
A97
330
1D
100
AcDbEntity
  8
CSLAYER10
  6
Continuous
100
AcDbLine
 10
332.863447638962
 20
66.731474542942
 30
0.0
 11
182.820424985247
 21
66.731474542942
 31
0.0
  0
TEXT
  5
A99
330
1D
100
AcDbEntity
  8
CSLAYER10
  6
Continuous
100
AcDbText
 10
189.254479985247
 20
91.757476911335
 30
0.0
 40
5.0
  1
扉厚
 41
1.125
  7
FX_FONT
 72
     5
 11
201.254479985247
 21
91.757476911335
 31
0.0
100
AcDbText
  0
LINE
  5
A9A
330
1D
100
AcDbEntity
  8
CSLAYER10
  6
Continuous
100
AcDbLine
 10
207.820424985247
 20
58.731474542942
 30
0.0
 11
207.820424985247
 21
106.731474542942
 31
0.0
  0
LINE
  5
A9B
330
1D
100
AcDbEntity
  8
CSLAYER10
  6
Continuous
100
AcDbLine
 10
207.820424985247
 20
98.731474542942
 30
0.0
 11
332.863447638962
 21
98.731474542942
 31
0.0
  0
LINE
  5
A9C
330
1D
100
AcDbEntity
  8
CSLAYER10
  6
Continuous
100
AcDbLine
 10
182.820424985247
 20
106.731474542942
 30
0.0
 11
332.863447638962
 21
106.731474542942
 31
0.0
  0
LINE
  5
A9D
330
1D
100
AcDbEntity
  8
CSLAYER10
  6
Continuous
100
AcDbLine
 10
207.820424985247
 20
90.731474542942
 30
0.0
 11
332.863447638962
 21
90.731474542942
 31
0.0
  0
LINE
  5
A9E
330
1D
100
AcDbEntity
  8
CSLAYER10
  6
Continuous
100
AcDbLine
 10
238.88388285895
 20
90.731474542942
 30
0.0
 11
238.88388285895
 21
58.731474542942
 31
0.0
  0
TEXT
  5
A9F
330
1D
100
AcDbEntity
  8
CSLAYER10
  6
Continuous
100
AcDbText
 10
230.0834837748
 20
92.64543612756
 30
0.0
 40
4.0
  1
Ａ＝40
  7
FX_FONT
100
AcDbText
  0
TEXT
  5
AA5
330
1D
100
AcDbEntity
  8
CSLAYER10
  6
Continuous
100
AcDbText
 10
91.742868145284
 20
114.500585692511
 30
0.0
 40
4.0
  1
●カラー寸法
  7
FX_FONT
100
AcDbText
  0
LINE
  5
AA6
330
1D
100
AcDbEntity
  8
CSLAYER10
  6
Continuous
100
AcDbLine
 10
88.742415846336
 20
113.021489488804
 30
0.0
 11
123.395526904605
 21
113.021489488804
 31
0.0
  0
TEXT
  5
AA7
330
1D
100
AcDbEntity
  8
CSLAYER10
  6
Continuous
100
AcDbText
 10
116.381149983721
 20
100.602742507274
 30
0.0
 40
4.0
  1
Ｘ・ＮＸキーシリンダー
  7
FX_FONT
100
AcDbText
  0
TEXT
  5
ADA
330
1D
100
AcDbEntity
  8
CSLAYER10
  6
Continuous
100
AcDbText
 10
210.612253077112
 20
100.461309914224
 30
0.0
 40
4.0
  1
シリンダー（5、6本ピン）、サムターン
 41
0.65
  7
FX_FONT
100
AcDbText
  0
TEXT
  5
B09
330
1D
100
AcDbEntity
  8
CSLAYER10
  6
Continuous
100
AcDbText
 10
184.264281922493
 20
76.268806680437
 30
0.0
 40
4.0
  1
30 ~ 34
 41
0.86996547756
  7
FX_FONT
 72
     5
 11
205.264281922493
 21
76.268806680437
 31
0.0
100
AcDbText
  0
TEXT
  5
B0A
330
1D
100
AcDbEntity
  8
CSLAYER10
  6
Continuous
100
AcDbText
 10
184.264281922493
 20
68.268814680437
 30
0.0
 40
4.0
  1
34 ~ 42
 41
0.870165745856
  7
FX_FONT
 72
     5
 11
205.264281922493
 21
68.268814680437
 31
0.0
100
AcDbText
  0
TEXT
  5
B0B
330
1D
100
AcDbEntity
  8
CSLAYER10
  6
Continuous
100
AcDbText
 10
184.264281922493
 20
60.268814680437
 30
0.0
 40
4.0
  1
42 ~ 52
 41
0.869165325362
  7
FX_FONT
 72
     5
 11
205.264281922493
 21
60.268814680437
 31
0.0
100
AcDbText
  0
TEXT
  5
B38
330
1D
100
AcDbEntity
  8
CSLAYER10
  6
Continuous
100
AcDbText
 10
88.735688624464
 20
85.034881555558
 30
0.0
 40
4.0
  1
（以上 ~ 未満）
 41
0.610465116279
  7
FX_FONT
 72
     5
 11
109.735688624464
 21
85.034881555558
 31
0.0
100
AcDbText
  0
TEXT
  5
B95
330
1D
100
AcDbEntity
  8
CSLAYER10
  6
Continuous
100
AcDbText
 10
89.100957523784
 20
52.956196607848
 30
0.0
 40
4.0
  1
46 ~ 52
 41
0.868167202572
  7
FX_FONT
 72
     5
 11
110.100957523784
 21
52.956196607848
 31
0.0
100
AcDbText
  0
TEXT
  5
BDF
330
1D
100
AcDbEntity
  8
CSLAYER10
  6
Continuous
100
AcDbText
 10
277.51706178907
 20
84.202607215304
 30
0.0
 40
4.0
  1
高さ(H)
 41
0.89552238806
  7
FX_FONT
 72
     5
 11
295.51706178907
 21
84.202607215304
 31
0.0
100
AcDbText
  0
TEXT
  5
BE0
330
1D
100
AcDbEntity
  8
CSLAYER10
  6
Continuous
100
AcDbText
 10
308.153983643759
 20
84.67831730372
 30
0.0
 40
4.0
  1
直径(D)
 41
0.89552238806
  7
FX_FONT
 72
     5
 11
326.153983643759
 21
84.67831730372
 31
0.0
100
AcDbText
  0
TEXT
  5
BE1
330
1D
100
AcDbEntity
  8
CSLAYER10
  6
Continuous
100
AcDbText
 10
280.438603945754
 20
75.89390743979
 30
0.0
 40
4.0
  1
16.0
 41
0.661521499449
  7
FX_FONT
 72
     5
 11
290.438603945754
 21
75.89390743979
 31
0.0
100
AcDbText
  0
TEXT
  5
BE2
330
1D
100
AcDbEntity
  8
CSLAYER10
  6
Continuous
100
AcDbText
 10
280.445439945754
 20
68.19399443979
 30
0.0
 40
4.0
  1
13.5
 41
0.652173913043
  7
FX_FONT
 72
     5
 11
290.445439945754
 21
68.19399443979
 31
0.0
100
AcDbText
  0
TEXT
  5
BE3
330
1D
100
AcDbEntity
  8
CSLAYER10
  6
Continuous
100
AcDbText
 10
281.918453832142
 20
60.307410046435
 30
0.0
 40
4.0
  1
8.5
 41
0.749711966558
  7
FX_FONT
 72
     5
 11
290.415189453136
 21
60.307410046435
 31
0.0
100
AcDbText
  0
TEXT
  5
BE4
330
1D
100
AcDbEntity
  8
CSLAYER10
  6
Continuous
100
AcDbText
 10
310.293329800443
 20
76.560123528206
 30
0.0
 40
4.0
  1
%%C38.5
 41
0.680946170062
  7
FX_FONT
 72
     5
 11
323.458289088314
 21
76.560123528206
 31
0.0
100
AcDbText
  0
TEXT
  5
BE5
330
1D
100
AcDbEntity
  8
CSLAYER10
  6
Continuous
100
AcDbText
 10
310.293329800443
 20
68.669704528206
 30
0.0
 40
4.0
  1
%%C38.0
 41
0.705602240802
  7
FX_FONT
 72
     5
 11
323.76249257487
 21
68.669704528206
 31
0.0
100
AcDbText
  0
TEXT
  5
BE6
330
1D
100
AcDbEntity
  8
CSLAYER10
  6
Continuous
100
AcDbText
 10
310.399194800443
 20
60.266712528206
 30
0.0
 40
4.0
  1
%%C37.5
 41
0.694241319729
  7
FX_FONT
 72
     5
 11
323.821193648533
 21
60.266712528206
 31
0.0
100
AcDbText
  0
LINE
  5
BE7
330
1D
100
AcDbEntity
  8
CSLAYER10
  6
Continuous
100
AcDbLine
 10
270.341936312104
 20
58.731474542942
 30
0.0
 11
270.341936312104
 21
106.731474542942
 31
0.0
  0
LINE
  5
BE8
330
1D
100
AcDbEntity
  8
CSLAYER10
  6
Continuous
100
AcDbLine
 10
301.405394185807
 20
90.731474542942
 30
0.0
 11
301.405394185807
 21
58.731474542942
 31
0.0
  0
TEXT
  5
BE9
330
1D
100
AcDbEntity
  8
CSLAYER10
  6
Continuous
100
AcDbText
 10
292.604995101658
 20
92.64543612756
 30
0.0
 40
4.0
  1
Ａ＝32.5
  7
FX_FONT
100
AcDbText
  0
TEXT
  5
BEA
330
1D
100
AcDbEntity
  8
CSLAYER10
  6
Continuous
100
AcDbText
 10
273.13376440397
 20
100.461309914224
 30
0.0
 40
4.0
  1
エマージェンシー（65）、表示器（68）
 41
0.65
  7
FX_FONT
100
AcDbText
  0
TEXT
  5
BEC
330
1D
100
AcDbEntity
  8
CSLAYER10
  6
Continuous
100
AcDbText
 10
184.488590818739
 20
85.034881555558
 30
0.0
 40
4.0
  1
（以上 ~ 未満）
 41
0.610465116279
  7
FX_FONT
 72
     5
 11
205.488590818739
 21
85.034881555558
 31
0.0
100
AcDbText
  0
TEXT
  5
BED
330
1D
100
AcDbEntity
  8
CSLAYER10
100
AcDbText
 10
423.61524074288
 20
140.534719597265
 30
0.0
 40
4.0
  1
※ ケースハンドルの場合%%C12
  7
FX_FONT
100
AcDbText
  0
LINE
  5
BEE
330
1D
100
AcDbEntity
  8
CSLAYER10
  6
Continuous
 48
0.3
100
AcDbLine
 10
93.648914889256
 20
300.000497003479
 30
0.0
 11
106.335874776177
 21
300.000497003479
 31
0.0
  0
LINE
  5
BEF
330
1D
100
AcDbEntity
  8
CSLAYER10
  6
Continuous
 48
0.3
100
AcDbLine
 10
93.648914889256
 20
219.999502996521
 30
0.0
 11
106.335874776177
 21
219.999502996521
 31
0.0
  0
LINE
  5
BF0
102
{ACAD_REACTORS
330
EC6
330
ECA
330
ECE
102
}
330
1D
100
AcDbEntity
  8
CSLAYER10
  6
Continuous
100
AcDbLine
 10
490.0
 20
173.39286809327
 30
0.0
 11
490.0
 21
328.41920415113
 31
0.0
  0
HATCH
  5
EC6
102
{ACAD_XDICTIONARY
360
EC7
102
}
330
1D
100
AcDbEntity
  8
CSLAYER10
100
AcDbHatch
 10
0.0
 20
0.0
 30
0.0
210
0.0
220
0.0
230
1.0
  2
_USER
 70
     0
 71
     1
 91
       35
 92
        7
 72
     1
 73
     1
 93
        8
 10
498.0
 20
310.856406
 42
0.0
 10
494.9652124800616
 20
305.6
 42
0.0
 10
499.1
 20
305.6
 42
0.0
 10
499.1
 20
300.8
 42
0.0
 10
499.1
 20
297.0
 42
0.0
 10
505.0
 20
297.0
 42
0.0
 10
505.0
 20
302.56776436283
 42
0.1746891977505655
 10
498.0000001994244
 20
310.8564063454132
 42
0.0
 97
        6
330
90D
330
51D
330
51C
330
93F
330
52D
330
5B9
 92
        7
 72
     0
 73
     1
 93
        4
 10
499.1
 20
305.6
 10
494.9652124800616
 20
305.6
 10
492.1939310958412
 20
300.8
 10
499.1
 20
300.8
 97
        4
330
51D
330
90D
330
534
330
51C
 92
        7
 72
     1
 73
     1
 93
        5
 10
494.9652124800616
 20
305.6
 42
0.0
 10
498.0
 20
310.856406
 42
0.0
 10
498.0000001994244
 20
310.8564063454132
 42
0.1316525012478135
 10
490.0
 20
313.0
 42
0.0
 10
490.0
 20
305.6
 42
0.0
 97
        4
330
90D
330
5B9
330
BF0
330
51D
 92
        7
 72
     0
 73
     1
 93
        4
 10
490.0
 20
305.6
 10
490.0
 20
300.8
 10
492.1939310958412
 20
300.8
 10
494.9652124800616
 20
305.6
 97
        4
330
BF0
330
534
330
90D
330
51D
 92
        7
 72
     1
 73
     1
 93
        4
 10
490.0
 20
300.8
 42
0.0
 10
490.0
 20
299.0
 42
-0.0459728147649964
 10
491.0963763500866
 20
298.8989794794498
 42
0.0
 10
492.1939310958412
 20
300.8
 42
0.0
 97
        4
330
BF0
330
525
330
90D
330
534
 92
        7
 72
     1
 73
     1
 93
        4
 10
490.0
 20
299.0
 42
0.0
 10
490.0
 20
297.5
 42
-0.0157625017225785
 10
490.2835136385976
 20
297.4910600103683
 42
0.0
 10
491.0963763500866
 20
298.8989794794498
 42
0.0459728147649964
 97
        4
330
BF0
330
522
330
90D
330
525
 92
        7
 72
     1
 73
     1
 93
        3
 10
490.0
 20
297.5
 42
0.0
 10
490.0
 20
297.0
 42
0.0
 10
490.2835136385976
 20
297.4910600103683
 42
0.0157625017225785
 97
        3
330
BF0
330
90D
330
522
 92
        7
 72
     1
 73
     1
 93
        3
 10
490.0
 20
297.0
 42
0.0
 10
492.0615528128088
 20
297.0
 42
0.1035774021781313
 10
490.2835136385976
 20
297.4910600103683
 42
0.0
 97
        3
330
93F
330
522
330
90D
 92
        7
 72
     1
 73
     1
 93
        4
 10
492.0615528128088
 20
297.0
 42
0.0
 10
494.4721359549996
 20
297.0
 42
0.165821971779113
 10
491.0963763500866
 20
298.8989794794498
 42
0.0
 10
490.2835136385976
 20
297.4910600103683
 42
-0.1035774021781313
 97
        4
330
93F
330
525
330
90D
330
522
 92
        7
 72
     1
 73
     1
 93
        5
 10
494.4721359549996
 20
297.0
 42
0.0
 10
499.1
 20
297.0
 42
0.0
 10
499.1
 20
300.8
 42
0.0
 10
492.1939310958412
 20
300.8
 42
0.0
 10
491.0963763500866
 20
298.8989794794498
 42
-0.165821971779113
 97
        5
330
93F
330
51C
330
534
330
90D
330
525
 92
        7
 72
     0
 73
     1
 93
        4
 10
480.9
 20
300.8
 10
490.0
 20
300.8
 10
490.0
 20
305.6
 10
480.9
 20
305.6
 97
        4
330
534
330
BF0
330
51D
330
51E
 92
        7
 72
     1
 73
     1
 93
        5
 10
490.0
 20
300.8
 42
0.0
 10
480.9
 20
300.8
 42
0.0
 10
480.9
 20
297.0
 42
0.0
 10
485.5278640450004
 20
297.0
 42
-0.213421765283389
 10
490.0
 20
299.0
 42
0.0
 97
        5
330
534
330
51E
330
93F
330
525
330
BF0
 92
        7
 72
     1
 73
     1
 93
        6
 10
480.9
 20
300.8
 42
0.0
 10
480.9
 20
305.6
 42
0.0
 10
490.0
 20
305.6
 42
0.0
 10
490.0
 20
313.0
 42
0.414213562373095
 10
474.0
 20
297.0
 42
0.0
 10
480.9
 20
297.0
 42
0.0
 97
        5
330
51E
330
51D
330
BF0
330
5B9
330
93F
 92
        7
 72
     1
 73
     1
 93
        6
 10
488.8
 20
297.0
 42
0.0
 10
488.8
 20
297.33705
 42
0.0
 10
488.7999999964741
 20
297.3370496874647
 42
-0.0675858252037446
 10
490.0
 20
297.5
 42
0.0
 10
490.0
 20
299.0
 42
0.213421765283389
 10
485.5278640450004
 20
297.0
 42
0.0
 97
        5
330
523
330
522
330
BF0
330
525
330
93F
 92
        7
 72
     1
 73
     1
 93
        5
 10
488.8
 20
297.33705
 42
0.0
 10
488.8
 20
297.0
 42
0.0
 10
490.0
 20
297.0
 42
0.0
 10
490.0
 20
297.5
 42
0.0675858252037446
 10
488.7999999964741
 20
297.3370496874647
 42
0.0
 97
        4
330
523
330
93F
330
BF0
330
522
 92
        7
 72
     1
 73
     1
 93
        4
 10
492.0615528128088
 20
297.0
 42
0.0
 10
490.0
 20
297.0
 42
0.0
 10
490.0
 20
293.0
 42
0.0
 10
494.5
 20
293.0
 42
0.2807764064044154
 97
        4
330
93F
330
BF0
330
5B8
330
522
 92
        7
 72
     0
 73
     1
 93
        6
 10
488.8
 20
294.2
 10
488.3834191925381
 20
294.2
 10
487.690598846483
 20
293.0
 10
490.0
 20
293.0
 10
490.0
 20
297.0
 10
488.8
 20
294.9215391
 97
        5
330
524
330
90D
330
5B8
330
BF0
330
523
 92
        7
 72
     0
 73
     1
 93
        3
 10
490.0
 20
297.0
 10
488.8
 20
297.0
 10
488.8
 20
294.9215391
 97
        3
330
93F
330
523
330
90D
 92
        7
 72
     1
 73
     1
 93
        8
 10
485.5
 20
293.0
 42
-0.0675858252037448
 10
485.6629503125353
 20
294.2000000035259
 42
0.0
 10
485.66295
 20
294.2
 42
0.0
 10
488.3834191925381
 20
294.2
 42
0.0
 10
488.8
 20
294.9215391
 42
0.0
 10
488.8
 20
297.0
 42
0.0
 10
485.5278640450004
 20
297.0
 42
0.1844830881382516
 10
484.0
 20
293.0
 42
0.0
 97
        7
330
51F
330
524
330
90D
330
523
330
93F
330
525
330
5B8
 92
        7
 72
     1
 73
     1
 93
        5
 10
485.6629503125353
 20
294.2000000035259
 42
0.0675858252037448
 10
485.5
 20
293.0
 42
0.0
 10
487.690598846483
 20
293.0
 42
0.0
 10
488.3834191925381
 20
294.2
 42
0.0
 10
485.66295
 20
294.2
 42
0.0
 97
        4
330
51F
330
5B8
330
90D
330
524
 92
        7
 72
     1
 73
     1
 93
        4
 10
496.0
 20
293.0
 42
0.1844830881382516
 10
494.4721359549996
 20
297.0
 42
0.0
 10
492.0615528128088
 20
297.0
 42
-0.2807764064044154
 10
494.5
 20
293.0
 42
0.0
 97
        4
330
525
330
93F
330
522
330
5B8
 92
        7
 72
     1
 73
     1
 93
        7
 10
494.4721359549996
 20
297.0
 42
-0.1844830881382516
 10
496.0
 20
293.0
 42
-0.414213562373095
 10
490.0
 20
287.0
 42
0.0
 10
490.0
 20
285.0
 42
0.2185723291109908
 10
499.1000000371412
 20
289.1775963205656
 42
0.0
 10
499.1
 20
289.177596
 42
0.0
 10
499.1
 20
297.0
 42
0.0
 97
        5
330
525
330
BF0
330
51B
330
51C
330
93F
 92
        7
 72
     1
 73
     1
 93
        7
 10
480.8999999628588
 20
289.1775963205656
 42
0.0844886177164246
 10
483.9999998504317
 20
286.6076952409401
 42
0.0
 10
485.4395219772067
 20
289.1010206202624
 42
-0.1787069171295322
 10
484.0
 20
293.0
 42
-0.1844830881382516
 10
485.5278640450004
 20
297.0
 42
0.0
 10
480.9
 20
297.0
 42
0.0
 10
480.9
 20
289.177596
 42
0.0
 97
        5
330
51B
330
90D
330
525
330
93F
330
51E
 92
        7
 72
     1
 73
     1
 93
        4
 10
484.0
 20
293.0
 42
0.1787069171295322
 10
485.4395219772067
 20
289.1010206202624
 42
0.0
 10
486.2523846886957
 20
290.5089400893439
 42
-0.1477215396813972
 10
485.5
 20
293.0
 42
0.0
 97
        4
330
525
330
90D
330
51F
330
5B8
 92
        7
 72
     1
 73
     1
 93
        3
 10
486.2523846886957
 20
290.5089400893439
 42
0.0
 10
487.690598846483
 20
293.0
 42
0.0
 10
485.5
 20
293.0
 42
0.1477215396813972
 97
        3
330
90D
330
5B8
330
51F
 92
        7
 72
     1
 73
     1
 93
        4
 10
490.0
 20
288.5
 42
0.0
 10
490.0
 20
293.0
 42
0.0
 10
487.690598846483
 20
293.0
 42
0.0
 10
486.2523846886957
 20
290.5089400893439
 42
0.2511260550396452
 97
        4
330
BF0
330
5B8
330
90D
330
51F
 92
        7
 72
     1
 73
     1
 93
        4
 10
490.0
 20
287.0
 42
0.0
 10
490.0
 20
288.5
 42
-0.2511260550396452
 10
486.2523846886957
 20
290.5089400893439
 42
0.0
 10
485.4395219772067
 20
289.1010206202624
 42
0.2192752695158087
 97
        4
330
BF0
330
51F
330
90D
330
525
 92
        7
 72
     1
 73
     1
 93
        4
 10
490.0
 20
285.0
 42
0.0
 10
490.0
 20
287.0
 42
-0.2192752695158087
 10
485.4395219772067
 20
289.1010206202624
 42
0.0
 10
483.9999998504317
 20
286.6076952409401
 42
0.1316525012478137
 97
        4
330
BF0
330
525
330
90D
330
51B
 92
        7
 72
     1
 73
     1
 93
        9
 10
494.5
 20
293.0
 42
-0.0675858252037448
 10
494.3370496874647
 20
291.7999999964741
 42
0.0
 10
494.33705
 20
291.8
 42
0.0
 10
491.2
 20
291.8
 42
0.0
 10
491.2
 20
288.66295
 42
0.0
 10
491.2000000035259
 20
288.6629503125353
 42
-0.0675858252037448
 10
490.0
 20
288.5
 42
0.0
 10
490.0
 20
287.0
 42
0.414213562373095
 10
496.0
 20
293.0
 42
0.0
 97
        7
330
522
330
521
330
520
330
51F
330
BF0
330
525
330
5B8
 92
        7
 72
     1
 73
     1
 93
        8
 10
494.3370496874647
 20
291.7999999964741
 42
0.0675858252037448
 10
494.5
 20
293.0
 42
0.0
 10
490.0
 20
293.0
 42
0.0
 10
490.0
 20
288.5
 42
0.0675858252037448
 10
491.2000000035259
 20
288.6629503125353
 42
0.0
 10
491.2
 20
288.66295
 42
0.0
 10
491.2
 20
291.8
 42
0.0
 10
494.33705
 20
291.8
 42
0.0
 97
        6
330
522
330
5B8
330
BF0
330
51F
330
520
330
521
 92
        7
 72
     1
 73
     1
 93
        7
 10
483.9999998504317
 20
286.6076952409401
 42
-0.0844886177164246
 10
480.8999999628588
 20
289.1775963205656
 42
0.0
 10
480.9
 20
289.177596
 42
0.0
 10
480.9
 20
297.0
 42
0.0
 10
474.0
 20
297.0
 42
0.2679491885747391
 10
481.9999998005756
 20
283.1435936545868
 42
0.0
 10
482.0
 20
283.143594
 42
0.0
 97
        5
330
51B
330
51E
330
93F
330
5B9
330
90D
 92
        7
 72
     1
 73
     1
 93
        5
 10
490.0
 20
281.0
 42
0.0
 10
490.0
 20
285.0
 42
-0.1316525012478137
 10
483.9999998504317
 20
286.6076952409401
 42
0.0
 10
482.0
 20
283.143594
 42
0.0
 10
481.9999998005756
 20
283.1435936545868
 42
0.1316525012478135
 97
        4
330
BF0
330
51B
330
90D
330
5B9
 92
        7
 72
     1
 73
     1
 93
        7
 10
499.1
 20
297.0
 42
0.0
 10
499.1
 20
289.177596
 42
0.0
 10
499.1000000371412
 20
289.1775963205656
 42
-0.2185723291109908
 10
490.0
 20
285.0
 42
0.0
 10
490.0
 20
281.0
 42
0.3135528725660044
 10
505.0
 20
291.43223563717
 42
0.0
 10
505.0
 20
297.0
 42
0.0
 97
        6
330
51C
330
51B
330
BF0
330
5B9
330
52D
330
93F
 92
        7
 72
     1
 73
     1
 93
        3
 10
506.0
 20
297.0
 42
0.0890898866623582
 10
505.0
 20
302.56776436283
 42
0.0
 10
505.0
 20
297.0
 42
0.0
 97
        3
330
5B9
330
52D
330
93F
 92
        7
 72
     1
 73
     1
 93
        3
 10
506.0
 20
297.0
 42
0.0
 10
505.0
 20
297.0
 42
0.0
 10
505.0
 20
291.43223563717
 42
0.0890898866623582
 97
        3
330
93F
330
52D
330
5B9
 75
     0
 76
     0
 52
135.0
 41
1.0
 77
     0
 78
     1
 53
135.0
 43
0.0
 44
0.0
 45
-0.7071067811865476
 46
-0.7071067811865475
 79
     0
 47
0.0
 98
       35
 10
504.3768283449766
 20
300.3629509470922
 10
498.3288765382326
 20
302.1364104994457
 10
494.0998576056975
 20
307.5932091220718
 10
492.5992379844752
 20
303.9098700517991
 10
491.2350383288187
 20
299.7717977629744
 10
490.6438851447009
 20
298.634964716594
 10
490.1365733977536
 20
297.3475012915681
 10
490.4207816593488
 20
297.3119752588687
 10
491.6286667711279
 20
297.8803917820589
 10
494.4529863707293
 20
299.2836700736848
 10
485.5748270834887
 20
302.9521340159865
 10
485.5232215154099
 20
300.2944472599298
 10
485.6028114440212
 20
309.7748264312987
 10
488.768947748599
 20
298.2164968256457
 10
489.4272509074881
 20
297.1420909726027
 10
491.9296817174794
 20
294.7449303375221
 10
489.5661749094268
 20
294.6403503902632
 10
488.9596112153248
 20
296.4391254831173
 10
487.725567837669
 20
295.9580577257261
 10
487.6000719009583
 20
293.4690549809628
 10
494.690592325116
 20
295.4142419999795
 10
496.301123512904
 20
295.0795861687508
 10
482.4338225063655
 20
294.1383666434202
 10
485.0692371772914
 20
291.1892121307174
 10
486.4496924811098
 20
292.4650874872767
 10
488.4576274684818
 20
290.8127243205851
 10
487.8928957532834
 20
288.7629573543094
 10
487.0562561752117
 20
287.1315101770696
 10
491.1348741183112
 20
288.3864695441771
 10
491.0512101605041
 20
292.1513476454999
 10
478.8559077393263
 20
293.0661020413202
 10
488.8443598448762
 20
283.0776499357703
 10
493.7532145121336
 20
283.8033067126692
 10
505.2570087106195
 20
297.9589495737931
 10
505.3370443845422
 20
294.9175939647313
1001
ACAD
1010
0.0
1020
0.0
1030
0.0
1001
AcadAnnotative
1000
AnnotativeData
1002
{
1070
     1
1070
     0
1002
}
  0
HATCH
  5
ECA
102
{ACAD_XDICTIONARY
360
ECB
102
}
330
1D
100
AcDbEntity
  8
CSLAYER10
100
AcDbHatch
 10
0.0
 20
0.0
 30
0.0
210
0.0
220
0.0
230
1.0
  2
_USER
 70
     0
 71
     1
 91
       14
 92
        7
 72
     1
 73
     1
 93
        4
 10
490.0
 20
243.2
 42
0.0
 10
490.0
 20
247.0
 42
0.414213562373095
 10
475.0
 20
232.0
 42
0.0
 10
478.8
 20
232.0
 42
-0.414213562373095
 97
        4
330
BF0
330
5AF
330
5B0
330
527
 92
        7
 72
     1
 73
     1
 93
        3
 10
490.0
 20
232.0
 42
0.0
 10
490.0
 20
240.0
 42
0.414213562373095
 10
482.0
 20
232.0
 42
0.0
 97
        3
330
BF0
330
529
330
5B0
 92
        7
 72
     1
 73
     1
 93
        4
 10
490.0
 20
240.0
 42
0.0
 10
490.0
 20
243.2
 42
0.414213562373095
 10
478.8
 20
232.0
 42
0.0
 10
482.0
 20
232.0
 42
-0.414213562373095
 97
        4
330
BF0
330
527
330
5B0
330
529
 92
        7
 72
     1
 73
     1
 93
        6
 10
495.2
 20
238.079474
 42
0.0
 10
495.2
 20
241.919677
 42
0.0
 10
495.1999999140942
 20
241.9196774591425
 42
0.121296666175384
 10
490.0
 20
243.2
 42
0.0
 10
490.0
 20
240.0
 42
-0.1787646597971809
 10
495.200000013422
 20
238.0794736499479
 42
0.0
 97
        4
330
52A
330
527
330
BF0
330
529
 92
        7
 72
     1
 73
     1
 93
       10
 10
495.2
 20
241.919677
 42
0.0
 10
495.2
 20
238.079474
 42
0.0
 10
495.200000013422
 20
238.0794736499479
 42
0.1787646597971809
 10
490.0
 20
240.0
 42
0.0
 10
490.0
 20
232.0
 42
0.0
 10
500.606602
 20
242.606602
 42
0.0
 10
500.6066017177982
 20
242.6066017177982
 42
0.1989123673796583
 10
490.0
 20
247.0
 42
0.0
 10
490.0
 20
243.2
 42
-0.121296666175384
 10
495.1999999140942
 20
241.9196774591425
 42
0.0
 97
        6
330
52A
330
529
330
BF0
330
91A
330
5AF
330
527
 92
        7
 72
     1
 73
     1
 93
        4
 10
500.606602
 20
242.606602
 42
0.0
 10
490.0
 20
232.0
 42
0.0
 10
505.0
 20
232.0
 42
0.1989123673796576
 10
500.6066017177982
 20
242.6066017177982
 42
0.0
 97
        3
330
91A
330
5B0
330
5AF
 92
        7
 72
     1
 73
     1
 93
        9
 10
495.2
 20
225.920526
 42
0.0
 10
495.2
 20
222.080323
 42
0.0
 10
495.1999999140942
 20
222.0803225408575
 42
-0.1212966661753838
 10
490.0
 20
220.8
 42
0.0
 10
490.0
 20
217.0
 42
0.414213562373095
 10
505.0
 20
232.0
 42
0.0
 10
490.0
 20
232.0
 42
0.0
 10
490.0
 20
224.0
 42
0.1787646597971809
 10
495.200000013422
 20
225.9205263500521
 42
0.0
 97
        6
330
528
330
527
330
BF0
330
5AF
330
5B0
330
529
 92
        7
 72
     1
 73
     1
 93
        6
 10
495.2
 20
222.080323
 42
0.0
 10
495.2
 20
225.920526
 42
0.0
 10
495.200000013422
 20
225.9205263500521
 42
-0.1787646597971809
 10
490.0
 20
224.0
 42
0.0
 10
490.0
 20
220.8
 42
0.1212966661753838
 10
495.1999999140942
 20
222.0803225408575
 42
0.0
 97
        4
330
528
330
529
330
BF0
330
527
 92
        7
 72
     1
 73
     1
 93
        4
 10
490.0
 20
220.8
 42
0.0
 10
490.0
 20
224.0
 42
-0.198912367379658
 10
484.3431457505076
 20
226.3431457505076
 42
0.0
 10
482.0804040507107
 20
224.0804040507107
 42
0.198912367379658
 97
        4
330
BF0
330
529
330
91A
330
527
 92
        7
 72
     1
 73
     1
 93
        3
 10
490.0
 20
224.0
 42
0.0
 10
490.0
 20
232.0
 42
0.0
 10
484.3431457505076
 20
226.3431457505076
 42
0.198912367379658
 97
        3
330
BF0
330
91A
330
529
 92
        7
 72
     1
 73
     1
 93
        5
 10
490.0
 20
217.0
 42
0.0
 10
490.0
 20
220.8
 42
-0.198912367379658
 10
482.0804040507107
 20
224.0804040507107
 42
0.0
 10
479.393398
 20
221.393398
 42
0.0
 10
479.3933982822018
 20
221.3933982822018
 42
0.198912367379658
 97
        4
330
BF0
330
527
330
91A
330
5AF
 92
        7
 72
     1
 73
     1
 93
        4
 10
482.0
 20
232.0
 42
0.0
 10
478.8
 20
232.0
 42
0.198912367379658
 10
482.0804040507107
 20
224.0804040507107
 42
0.0
 10
484.3431457505076
 20
226.3431457505076
 42
-0.198912367379658
 97
        4
330
5B0
330
527
330
91A
330
529
 92
        7
 72
     1
 73
     1
 93
        5
 10
478.8
 20
232.0
 42
0.0
 10
475.0
 20
232.0
 42
0.198912367379658
 10
479.3933982822018
 20
221.3933982822018
 42
0.0
 10
479.393398
 20
221.393398
 42
0.0
 10
482.0804040507107
 20
224.0804040507107
 42
-0.198912367379658
 97
        4
330
5B0
330
5AF
330
91A
330
527
 92
        7
 72
     1
 73
     1
 93
        3
 10
490.0
 20
232.0
 42
0.0
 10
482.0
 20
232.0
 42
0.198912367379658
 10
484.3431457505076
 20
226.3431457505076
 42
0.0
 97
        3
330
5B0
330
529
330
91A
 75
     0
 76
     0
 52
135.0
 41
1.0
 77
     0
 78
     1
 53
135.0
 43
0.0
 44
0.0
 45
-0.7071067811865476
 46
-0.7071067811865475
 79
     0
 47
0.0
 98
       14
 10
487.3615155555518
 20
244.0306589904042
 10
487.7252947497907
 20
236.7914530250488
 10
485.4698637455091
 20
239.5925528206889
 10
491.9451334029627
 20
240.9749137587969
 10
492.3816684360494
 20
244.2489265069476
 10
499.1479614488943
 20
237.1552322192878
 10
497.8591437321618
 20
227.23965075346
 10
493.5457618576141
 20
222.5624896846733
 10
488.4528531382686
 20
222.666426597313
 10
488.1930108566693
 20
227.4475245787394
 10
486.0623041475554
 20
220.3798145192395
 10
480.1379001270922
 20
227.23965075346
 10
477.6953826800591
 20
227.0317769281806
 10
485.6985249533164
 20
230.0979158510519
1001
ACAD
1010
0.0
1020
0.0
1030
0.0
1001
AcadAnnotative
1000
AnnotativeData
1002
{
1070
     1
1070
     0
1002
}
  0
HATCH
  5
ECE
102
{ACAD_XDICTIONARY
360
ECF
102
}
330
1D
100
AcDbEntity
  8
CSLAYER10
100
AcDbHatch
 10
0.0
 20
0.0
 30
0.0
210
0.0
220
0.0
230
1.0
  2
_USER
 70
     0
 71
     1
 91
       13
 92
        7
 72
     1
 73
     1
 93
        3
 10
490.0
 20
254.0
 42
0.0
 10
490.0
 20
257.65
 42
0.414213562373095
 10
486.35
 20
254.0
 42
0.0
 97
        3
330
BF0
330
526
330
8B0
 92
        7
 72
     1
 73
     1
 93
        3
 10
493.65
 20
254.0
 42
0.414213562373095
 10
490.0
 20
257.65
 42
0.0
 10
490.0
 20
254.0
 42
0.0
 97
        3
330
526
330
BF0
330
8B0
 92
        7
 72
     1
 73
     1
 93
        4
 10
490.0
 20
257.65
 42
-0.414213562373095
 10
493.65
 20
254.0
 42
0.0
 10
495.0
 20
254.0
 42
0.414213562373095
 10
490.0
 20
259.0
 42
0.0
 97
        4
330
526
330
8B0
330
5BA
330
BF0
 92
        7
 72
     1
 73
     1
 93
        4
 10
490.0
 20
257.65
 42
0.0
 10
490.0
 20
259.0
 42
0.414213562373095
 10
485.0
 20
254.0
 42
0.0
 10
486.35
 20
254.0
 42
-0.414213562373095
 97
        4
330
BF0
330
5BA
330
8B0
330
526
 92
        7
 72
     1
 73
     1
 93
        4
 10
490.0
 20
249.0
 42
0.0
 10
490.0
 20
250.35
 42
-0.414213562373095
 10
486.35
 20
254.0
 42
0.0
 10
485.0
 20
254.0
 42
0.414213562373095
 97
        4
330
BF0
330
526
330
8B0
330
5BA
 92
        7
 72
     1
 73
     1
 93
        3
 10
490.0
 20
250.35
 42
0.0
 10
490.0
 20
254.0
 42
0.0
 10
486.35
 20
254.0
 42
0.414213562373095
 97
        3
330
BF0
330
8B0
330
526
 92
        7
 72
     1
 73
     1
 93
        3
 10
490.0
 20
254.0
 42
0.0
 10
490.0
 20
250.35
 42
0.414213562373095
 10
493.65
 20
254.0
 42
0.0
 97
        3
330
BF0
330
526
330
8B0
 92
        7
 72
     1
 73
     1
 93
        4
 10
490.0
 20
250.35
 42
0.0
 10
490.0
 20
249.0
 42
0.414213562373095
 10
495.0
 20
254.0
 42
0.0
 10
493.65
 20
254.0
 42
-0.414213562373095
 97
        4
330
BF0
330
5BA
330
8B0
330
526
 92
        7
 72
     1
 73
     1
 93
        5
 10
487.5
 20
205.669873
 42
0.0
 10
490.0
 20
210.0
 42
0.0
 10
490.0
 20
213.65
 42
0.0
 10
490.0
 20
215.0
 42
0.7673269872273752
 10
487.4999999918065
 20
205.6698729858084
 42
0.0
 97
        3
330
965
330
BF0
330
5AE
 92
        7
 72
     1
 73
     1
 93
        7
 10
492.5
 20
214.330127
 42
0.0
 10
492.1333210209929
 20
212.9616619357026
 42
0.0251627614474061
 10
491.8250000059813
 20
213.1609927203599
 42
0.0
 10
490.0
 20
210.0
 42
0.0
 10
490.0
 20
205.0
 42
0.414213562373095
 10
495.0
 20
210.0
 42
0.2679491919241042
 10
492.5000000081935
 20
214.3301270141916
 42
0.0
 97
        5
330
968
330
535
330
965
330
BF0
330
5AE
 92
        7
 72
     1
 73
     1
 93
        4
 10
490.0
 20
210.0
 42
0.0
 10
491.8250000059813
 20
213.1609927203599
 42
0.0251627518615617
 10
491.4982141033784
 20
213.3283411033784
 42
0.1061381382421949
 10
490.0
 20
213.65
 42
0.0
 97
        3
330
965
330
535
330
BF0
 92
        7
 72
     1
 73
     1
 93
        5
 10
491.4982141033784
 20
213.3283411033784
 42
0.0
 10
492.5
 20
214.330127
 42
0.0
 10
492.5000000081935
 20
214.3301270141916
 42
0.1316524980686497
 10
490.0
 20
215.0
 42
0.0
 10
490.0
 20
213.65
 42
-0.1061381382421949
 97
        4
330
969
330
5AE
330
BF0
330
535
 92
        7
 72
     1
 73
     1
 93
        4
 10
490.0
 20
210.0
 42
0.0
 10
487.5
 20
205.669873
 42
0.0
 10
487.4999999918065
 20
205.6698729858084
 42
0.1316524980686498
 10
490.0
 20
205.0
 42
0.0
 97
        3
330
965
330
5AE
330
BF0
 75
     0
 76
     0
 52
45.0
 41
1.0
 77
     0
 78
     1
 53
45.0
 43
0.0
 44
0.0
 45
-0.7071067811865475
 46
0.7071067811865476
 79
     0
 47
0.0
 98
       13
 10
489.1284430704266
 20
254.1593111271435
 10
490.6874967600222
 20
254.8349010593016
 10
492.8182034691362
 20
256.9656077684156
 10
487.7252947497906
 20
257.4333238752942
 10
486.2701779728348
 20
252.3923836122686
 10
488.0371054877098
 20
253.275847369706
 10
492.2465504496178
 20
252.9120681754671
 10
493.3378880323347
 20
251.87269904907
 10
488.7510633486021
 20
211.7810780366513
 10
492.3525603879611
 20
211.1017071343308
 10
491.0361185234021
 20
212.8318878706085
 10
491.0361185234021
 20
213.9602666116591
 10
489.1554872883177
 20
207.0395436665486
1001
ACAD
1010
0.0
1020
0.0
1030
0.0
1001
AcadAnnotative
1000
AnnotativeData
1002
{
1070
     1
1070
     0
1002
}
  0
LINE
  5
ED2
330
1D
100
AcDbEntity
  8
0
  6
ByBlock
 62
     0
370
    -2
100
AcDbLine
 10
80.329749032451
 20
187.3
 30
0.0
 11
79.713466332451
 21
185.0
 31
0.0
  0
LINE
  5
ED3
330
1D
100
AcDbEntity
  8
0
  6
ByBlock
 62
     0
370
    -2
100
AcDbLine
 10
79.713466332451
 20
185.0
 30
0.0
 11
79.097183632451
 21
187.3
 31
0.0
  0
LINE
  5
ED4
330
1D
100
AcDbEntity
  8
0
  6
ByBlock
 62
     0
370
    -2
100
AcDbLine
 10
79.713466332451
 20
185.0
 30
0.0
 11
79.713466332451
 21
187.3
 31
0.0
  0
LINE
  5
ED5
330
1D
100
AcDbEntity
  8
0
  6
ByBlock
 62
     0
370
    -2
100
AcDbLine
 10
79.097183632451
 20
181.2
 30
0.0
 11
79.713466332451
 21
183.5
 31
0.0
  0
LINE
  5
ED6
330
1D
100
AcDbEntity
  8
0
  6
ByBlock
 62
     0
370
    -2
100
AcDbLine
 10
79.713466332451
 20
183.5
 30
0.0
 11
80.329749032451
 21
181.2
 31
0.0
  0
LINE
  5
ED7
330
1D
100
AcDbEntity
  8
0
  6
ByBlock
 62
     0
370
    -2
100
AcDbLine
 10
79.713466332451
 20
183.5
 30
0.0
 11
79.713466332451
 21
181.2
 31
0.0
  0
TEXT
  5
ED8
330
1D
100
AcDbEntity
  8
CSLAYER10
100
AcDbText
 10
29.842843506215
 20
354.480518672929
 30
0.0
 40
8.0
  1
535-05-70-DA
100
AcDbText
  0
LINE
  5
1009
330
1D
100
AcDbEntity
  8
CSLAYER10
  6
Continuous
100
AcDbLine
 10
146.5
 20
308.0
 30
0.0
 11
146.5
 21
336.0
 31
0.0
  0
LINE
  5
100A
330
1D
100
AcDbEntity
  8
CSLAYER10
  6
Continuous
100
AcDbLine
 10
260.0
 20
348.0
 30
0.0
 11
300.0
 21
348.0
 31
0.0
  0
LINE
  5
100B
330
1D
100
AcDbEntity
  8
CSLAYER10
  6
Continuous
100
AcDbLine
 10
300.0
 20
348.0
 30
0.0
 11
315.0
 21
348.0
 31
0.0
  0
LINE
  5
100C
330
1D
100
AcDbEntity
  8
CSLAYER10
  6
Continuous
100
AcDbLine
 10
213.3
 20
174.0
 30
0.0
 11
242.0
 21
174.0
 31
0.0
  0
LINE
  5
100D
330
1D
100
AcDbEntity
  8
CSLAYER10
  6
Continuous
100
AcDbLine
 10
146.5
 20
308.0
 30
0.0
 11
147.017638
 21
309.931852
 31
0.0
  0
LINE
  5
100E
330
1D
100
AcDbEntity
  8
CSLAYER10
  6
Continuous
100
AcDbLine
 10
146.5
 20
308.0
 30
0.0
 11
145.982362
 21
309.931852
 31
0.0
  0
LINE
  5
100F
330
1D
100
AcDbEntity
  8
CSLAYER10
  6
Continuous
100
AcDbLine
 10
213.3
 20
174.0
 30
0.0
 11
215.231852
 21
173.482362
 31
0.0
  0
LINE
  5
1010
330
1D
100
AcDbEntity
  8
CSLAYER10
  6
Continuous
100
AcDbLine
 10
213.3
 20
174.0
 30
0.0
 11
215.231852
 21
174.517638
 31
0.0
  0
LINE
  5
1011
330
1D
100
AcDbEntity
  8
CSLAYER10
  6
Continuous
100
AcDbLine
 10
260.0
 20
348.0
 30
0.0
 11
261.931852
 21
347.482362
 31
0.0
  0
LINE
  5
1012
330
1D
100
AcDbEntity
  8
CSLAYER10
  6
Continuous
100
AcDbLine
 10
260.0
 20
348.0
 30
0.0
 11
261.931852
 21
348.517638
 31
0.0
  0
LINE
  5
1013
330
1D
100
AcDbEntity
  8
CSLAYER10
  6
Continuous
100
AcDbLine
 10
300.0
 20
348.0
 30
0.0
 11
301.931852
 21
347.482362
 31
0.0
  0
LINE
  5
1014
330
1D
100
AcDbEntity
  8
CSLAYER10
  6
Continuous
100
AcDbLine
 10
300.0
 20
348.0
 30
0.0
 11
301.931852
 21
348.517638
 31
0.0
  0
LINE
  5
1015
330
1D
100
AcDbEntity
  8
CSLAYER10
  6
Continuous
100
AcDbLine
 10
242.0
 20
164.0
 30
0.0
 11
278.0
 21
164.0
 31
0.0
  0
LINE
  5
1016
330
1D
100
AcDbEntity
  8
CSLAYER10
  6
Continuous
100
AcDbLine
 10
242.0
 20
164.0
 30
0.0
 11
243.931852
 21
164.517638
 31
0.0
  0
LINE
  5
1017
330
1D
100
AcDbEntity
  8
CSLAYER10
  6
Continuous
100
AcDbLine
 10
242.0
 20
164.0
 30
0.0
 11
243.931852
 21
163.482362
 31
0.0
  0
LINE
  5
1018
330
1D
100
AcDbEntity
  8
CSLAYER10
  6
Continuous
100
AcDbLine
 10
278.0
 20
164.0
 30
0.0
 11
279.931852
 21
163.482362
 31
0.0
  0
LINE
  5
1019
330
1D
100
AcDbEntity
  8
CSLAYER10
  6
Continuous
100
AcDbLine
 10
278.0
 20
164.0
 30
0.0
 11
279.931852
 21
164.517638
 31
0.0
  0
LINE
  5
101A
330
1D
100
AcDbEntity
  8
CSLAYER10
  6
Continuous
100
AcDbLine
 10
278.0
 20
164.0
 30
0.0
 11
348.0
 21
164.0
 31
0.0
  0
LINE
  5
101B
330
1D
100
AcDbEntity
  8
CSLAYER10
  6
Continuous
100
AcDbLine
 10
373.0
 20
326.0
 30
0.0
 11
373.517638
 21
327.931852
 31
0.0
  0
LINE
  5
101C
330
1D
100
AcDbEntity
  8
CSLAYER10
  6
Continuous
100
AcDbLine
 10
373.0
 20
326.0
 30
0.0
 11
372.482362
 21
327.931852
 31
0.0
  0
LINE
  5
101D
330
1D
100
AcDbEntity
  8
CSLAYER10
  6
Continuous
100
AcDbLine
 10
373.0
 20
336.0
 30
0.0
 11
373.0
 21
326.0
 31
0.0
  0
LINE
  5
101E
330
1D
100
AcDbEntity
  8
CSLAYER10
  6
Continuous
100
AcDbLine
 10
373.0
 20
196.0
 30
0.0
 11
373.0
 21
186.0
 31
0.0
  0
LINE
  5
101F
330
1D
100
AcDbEntity
  8
CSLAYER10
  6
Continuous
100
AcDbLine
 10
373.0
 20
196.0
 30
0.0
 11
373.517638
 21
197.931852
 31
0.0
  0
LINE
  5
1020
330
1D
100
AcDbEntity
  8
CSLAYER10
  6
Continuous
100
AcDbLine
 10
373.0
 20
196.0
 30
0.0
 11
372.482362
 21
197.931852
 31
0.0
  0
LINE
  5
1021
330
1D
100
AcDbEntity
  8
CSLAYER10
  6
Continuous
100
AcDbLine
 10
383.0
 20
273.5
 30
0.0
 11
383.0
 21
248.5
 31
0.0
  0
LINE
  5
1022
330
1D
100
AcDbEntity
  8
CSLAYER10
  6
Continuous
100
AcDbLine
 10
382.482362
 20
271.568148
 30
0.0
 11
383.0
 21
273.5
 31
0.0
  0
LINE
  5
1023
330
1D
100
AcDbEntity
  8
CSLAYER10
  6
Continuous
100
AcDbLine
 10
383.517638
 20
271.568148
 30
0.0
 11
383.0
 21
273.5
 31
0.0
  0
LINE
  5
1024
330
1D
100
AcDbEntity
  8
CSLAYER10
  6
Continuous
100
AcDbLine
 10
383.0
 20
248.5
 30
0.0
 11
383.0
 21
196.0
 31
0.0
  0
LINE
  5
1025
330
1D
100
AcDbEntity
  8
CSLAYER10
  6
Continuous
100
AcDbLine
 10
490.0
 20
164.0
 30
0.0
 11
505.0
 21
164.0
 31
0.0
  0
LINE
  5
1026
330
1D
100
AcDbEntity
  8
CSLAYER10
  6
Continuous
100
AcDbLine
 10
490.0
 20
164.0
 30
0.0
 11
491.931852
 21
163.482362
 31
0.0
  0
LINE
  5
1027
330
1D
100
AcDbEntity
  8
CSLAYER10
  6
Continuous
100
AcDbLine
 10
490.0
 20
164.0
 30
0.0
 11
491.931852
 21
164.517638
 31
0.0
  0
LINE
  5
1028
330
1D
100
AcDbEntity
  8
CSLAYER10
  6
Continuous
100
AcDbLine
 10
527.0
 20
297.0
 30
0.0
 11
527.0
 21
313.0
 31
0.0
  0
LINE
  5
1029
330
1D
100
AcDbEntity
  8
CSLAYER10
  6
Continuous
100
AcDbLine
 10
527.0
 20
297.0
 30
0.0
 11
527.517638
 21
298.931852
 31
0.0
  0
LINE
  5
102A
330
1D
100
AcDbEntity
  8
CSLAYER10
  6
Continuous
100
AcDbLine
 10
527.0
 20
297.0
 30
0.0
 11
526.482362
 21
298.931852
 31
0.0
  0
LINE
  5
102B
330
1D
100
AcDbEntity
  8
CSLAYER10
  6
Continuous
100
AcDbLine
 10
526.529624811158
 20
230.078989350261
 30
0.0
 11
526.999718378333
 21
232.022957788032
 31
0.0
  0
LINE
  5
102C
330
1D
100
AcDbEntity
  8
CSLAYER10
  6
Continuous
100
AcDbLine
 10
527.564589286204
 20
230.104384853169
 30
0.0
 11
526.999718378333
 21
232.022957788032
 31
0.0
  0
LINE
  5
102D
330
1D
100
AcDbEntity
  8
CSLAYER10
  6
Continuous
100
AcDbLine
 10
527.0
 20
209.0
 30
0.0
 11
527.0
 21
232.0
 31
0.0
  0
LINE
  5
102E
330
1D
100
AcDbEntity
  8
CSLAYER10
  6
Continuous
100
AcDbLine
 10
537.0
 20
313.0
 30
0.0
 11
537.0
 21
336.0
 31
0.0
  0
LINE
  5
102F
330
1D
100
AcDbEntity
  8
CSLAYER10
  6
Continuous
100
AcDbLine
 10
537.0
 20
313.0
 30
0.0
 11
537.517638
 21
314.931852
 31
0.0
  0
LINE
  5
1030
330
1D
100
AcDbEntity
  8
CSLAYER10
  6
Continuous
100
AcDbLine
 10
537.0
 20
313.0
 30
0.0
 11
536.482362
 21
314.931852
 31
0.0
  0
LINE
  5
1031
330
1D
100
AcDbEntity
  8
CSLAYER10
  6
Continuous
100
AcDbLine
 10
536.482362
 20
207.068148
 30
0.0
 11
537.0
 21
209.0
 31
0.0
  0
LINE
  5
1032
330
1D
100
AcDbEntity
  8
CSLAYER10
  6
Continuous
100
AcDbLine
 10
537.517638
 20
207.068148
 30
0.0
 11
537.0
 21
209.0
 31
0.0
  0
LINE
  5
1033
330
1D
100
AcDbEntity
  8
CSLAYER10
  6
Continuous
100
AcDbLine
 10
537.0
 20
209.0
 30
0.0
 11
537.0
 21
186.0
 31
0.0
  0
LINE
  5
1099
330
1D
100
AcDbEntity
  8
CSLAYER10
  6
Continuous
100
AcDbLine
 10
26.799137189768
 20
350.587127457164
 30
0.0
 11
125.164898332487
 21
350.587127457164
 31
0.0
  0
ENDSEC
  0
SECTION
  2
OBJECTS
  0
DICTIONARY
  5
C
330
0
100
AcDbDictionary
281
     1
  3
ACAD_DETAILVIEWSTYLE
350
109E
  3
ACAD_GROUP
350
D
  3
ACAD_LAYOUT
350
1A
  3
ACAD_MATERIAL
350
77C
  3
ACAD_MLEADERSTYLE
350
782
  3
ACAD_MLINESTYLE
350
17
  3
ACAD_PLOTSETTINGS
350
19
  3
ACAD_PLOTSTYLENAME
350
E
  3
ACAD_SCALELIST
350
73D
  3
ACAD_SECTIONVIEWSTYLE
350
109F
  3
ACAD_TABLESTYLE
350
780
  3
ACAD_VISUALSTYLE
350
763
  3
ACDB_RECOMPOSE_DATA
350
109D
  3
AcDbVariableDictionary
350
AA8
  0
SUN
  5
785
330
3B
100
AcDbSun
 90
        1
290
     0
 63
     7
 40
1.0
291
     1
 91
  2455826
 92
 54000000
292
     0
 70
     2
 71
   256
280
     1
  0
DICTIONARY
  5
9E3
330
1D
100
AcDbDictionary
280
     1
281
     1
  3
ACAD_SORTENTS
360
9E4
  0
DICTIONARY
  5
A12
330
9EC
100
AcDbDictionary
280
     1
281
     1
  3
ACAD_SORTENTS
360
A13
  0
DICTIONARY
  5
AD4
330
AAF
100
AcDbDictionary
280
     1
281
     1
  3
ACAD_SORTENTS
360
AD5
  0
DICTIONARY
  5
B01
330
ADB
100
AcDbDictionary
280
     1
281
     1
  3
ACAD_SORTENTS
360
B02
  0
DICTIONARY
  5
B32
330
B0C
100
AcDbDictionary
280
     1
281
     1
  3
ACAD_SORTENTS
360
B33
  0
DICTIONARY
  5
B5F
330
B39
100
AcDbDictionary
280
     1
281
     1
  3
ACAD_SORTENTS
360
B60
  0
DICTIONARY
  5
B8B
330
B65
100
AcDbDictionary
280
     1
281
     1
  3
ACAD_SORTENTS
360
B8C
  0
DICTIONARY
  5
BBD
330
B97
100
AcDbDictionary
280
     1
281
     1
  3
ACAD_SORTENTS
360
BBE
  0
DICTIONARY
  5
9E5
330
9E1
100
AcDbDictionary
280
     1
281
     1
  3
AcDbContextDataManager
360
9E6
  0
DICTIONARY
  5
9E9
330
9E8
100
AcDbDictionary
280
     1
281
     1
  3
AcDbContextDataManager
360
9EA
  0
DICTIONARY
  5
EC7
330
EC6
100
AcDbDictionary
280
     1
281
     1
  3
AcDbContextDataManager
360
EC8
  0
DICTIONARY
  5
ECB
330
ECA
100
AcDbDictionary
280
     1
281
     1
  3
AcDbContextDataManager
360
ECC
  0
DICTIONARY
  5
ECF
330
ECE
100
AcDbDictionary
280
     1
281
     1
  3
AcDbContextDataManager
360
ED0
  0
DICTIONARY
  5
109E
102
{ACAD_REACTORS
330
C
102
}
330
C
100
AcDbDictionary
281
     1
  0
DICTIONARY
  5
D
102
{ACAD_REACTORS
330
C
102
}
330
C
100
AcDbDictionary
281
     1
  0
DICTIONARY
  5
1A
102
{ACAD_REACTORS
330
C
102
}
330
C
100
AcDbDictionary
281
     1
  3
Layout1
350
1C
  3
Model
350
1E
  0
DICTIONARY
  5
77C
102
{ACAD_REACTORS
330
C
102
}
330
C
100
AcDbDictionary
281
     1
  3
ByBlock
350
77E
  3
ByLayer
350
77D
  3
Global
350
77F
  0
DICTIONARY
  5
782
102
{ACAD_REACTORS
330
C
102
}
330
C
100
AcDbDictionary
281
     1
  3
Standard
350
783
  0
DICTIONARY
  5
17
102
{ACAD_REACTORS
330
C
102
}
330
C
100
AcDbDictionary
281
     1
  3
Standard
350
18
  0
DICTIONARY
  5
19
102
{ACAD_REACTORS
330
C
102
}
330
C
100
AcDbDictionary
281
     1
  0
ACDBDICTIONARYWDFLT
  5
E
102
{ACAD_REACTORS
330
C
102
}
330
C
100
AcDbDictionary
281
     1
  3
Normal
350
F
100
AcDbDictionaryWithDefault
340
F
  0
DICTIONARY
  5
73D
102
{ACAD_REACTORS
330
C
102
}
330
C
100
AcDbDictionary
281
     1
  3
A0
350
73E
  3
A1
350
73F
  3
A2
350
740
  3
A3
350
741
  3
A4
350
742
  3
A5
350
743
  3
A6
350
744
  3
A7
350
745
  3
A8
350
746
  3
A9
350
747
  3
B0
350
748
  3
B1
350
749
  3
B2
350
74A
  3
B3
350
74B
  3
B4
350
74C
  3
B5
350
74D
  3
B6
350
74E
  3
B7
350
74F
  3
B8
350
750
  3
B9
350
751
  3
C0
350
752
  3
C1
350
753
  3
C2
350
754
  3
C3
350
755
  3
C4
350
756
  3
C5
350
757
  3
C6
350
758
  3
C7
350
759
  3
C8
350
75A
  3
C9
350
75B
  3
D0
350
75C
  3
D1
350
75D
  3
D2
350
75E
  0
DICTIONARY
  5
109F
102
{ACAD_REACTORS
330
C
102
}
330
C
100
AcDbDictionary
281
     1
  0
DICTIONARY
  5
780
102
{ACAD_REACTORS
330
C
102
}
330
C
100
AcDbDictionary
281
     1
  3
Standard
350
781
  0
DICTIONARY
  5
763
102
{ACAD_REACTORS
330
C
102
}
330
C
100
AcDbDictionary
281
     1
  3
2dWireframe
350
768
  3
Basic
350
76B
  3
Brighten
350
76F
  3
ColorChange
350
773
  3
Conceptual
350
76D
  3
Dim
350
76E
  3
EdgeColorOff
350
776
  3
Facepattern
350
772
  3
Flat
350
764
  3
FlatWithEdges
350
765
  3
Gouraud
350
766
  3
GouraudWithEdges
350
767
  3
Hidden
350
76A
  3
JitterOff
350
774
  3
Linepattern
350
771
  3
Modeling
350
784
  3
OverhangOff
350
775
  3
Realistic
350
76C
  3
Shaded
350
77B
  3
Shaded with edges
350
77A
  3
Shades of Gray
350
777
  3
Sketchy
350
778
  3
Thicken
350
770
  3
Wireframe
350
769
  3
X-Ray
350
779
  0
XRECORD
  5
109D
102
{ACAD_REACTORS
330
C
102
}
330
C
100
AcDbXrecord
280
     1
 90
        1
330
781
  0
DICTIONARY
  5
AA8
102
{ACAD_REACTORS
330
C
102
}
330
C
100
AcDbDictionary
281
     1
  3
CANNOSCALE
350
109A
  3
CMLEADERSTYLE
350
AAB
  3
CTABLESTYLE
350
AAA
  3
DIMASSOC
350
C13
  3
HIDETEXT
350
C14
  3
MSLTSCALE
350
AAC
  0
SORTENTSTABLE
  5
9E4
102
{ACAD_REACTORS
330
9E3
102
}
330
9E3
100
AcDbSortentsTable
330
1D
331
0
  5
6D3
331
471
  5
472
331
472
  5
473
331
473
  5
475
331
474
  5
476
331
475
  5
477
331
476
  5
478
331
477
  5
479
331
478
  5
47A
331
479
  5
47B
331
47A
  5
47C
331
47B
  5
47D
331
47C
  5
47E
331
47D
  5
47F
331
47E
  5
480
331
47F
  5
481
331
480
  5
482
331
481
  5
483
331
482
  5
484
331
483
  5
485
331
484
  5
486
331
485
  5
487
331
486
  5
488
331
487
  5
489
331
488
  5
48A
331
489
  5
48B
331
48A
  5
48C
331
48E
  5
490
331
48F
  5
491
331
490
  5
492
331
491
  5
493
331
492
  5
494
331
493
  5
495
331
494
  5
496
331
495
  5
497
331
496
  5
498
331
497
  5
499
331
498
  5
49A
331
499
  5
49B
331
49A
  5
49C
331
49B
  5
49D
331
49C
  5
49E
331
49D
  5
49F
331
49E
  5
4A0
331
49F
  5
4A1
331
4A0
  5
4A2
331
4A1
  5
4A3
331
4A2
  5
4A4
331
4A3
  5
4A5
331
4A4
  5
4A6
331
4A5
  5
4A7
331
4A6
  5
4A8
331
4A7
  5
4A9
331
4A8
  5
4AA
331
4A9
  5
4AB
331
4AA
  5
4AC
331
4AB
  5
4AD
331
4AC
  5
4AE
331
4AD
  5
4AF
331
4AE
  5
4B0
331
4AF
  5
4B1
331
4B0
  5
4B2
331
4B1
  5
4B3
331
4B2
  5
4B4
331
4B3
  5
4B5
331
4B4
  5
4B6
331
4B5
  5
4B7
331
4B6
  5
4B8
331
4B7
  5
4B9
331
4B8
  5
4BA
331
4B9
  5
4BB
331
4BA
  5
4BC
331
4BB
  5
4BD
331
4BC
  5
4BE
331
4BD
  5
4BF
331
4BE
  5
4C0
331
4BF
  5
4C1
331
4C0
  5
4C2
331
4C1
  5
4C3
331
4C2
  5
4C4
331
4C3
  5
4C5
331
4C4
  5
4C6
331
4C5
  5
4C7
331
4C6
  5
4C8
331
4C7
  5
4C9
331
4C8
  5
4CA
331
4C9
  5
4CB
331
4CA
  5
4CC
331
4CB
  5
4CD
331
4CC
  5
4CE
331
4CD
  5
4CF
331
4CE
  5
4D0
331
4CF
  5
4D1
331
4D0
  5
4D2
331
4D1
  5
4D3
331
4D2
  5
4D4
331
4D3
  5
4D5
331
4D4
  5
4D6
331
4D5
  5
4D7
331
4D6
  5
4D8
331
4D7
  5
4D9
331
4D8
  5
4DA
331
4D9
  5
4DB
331
4DA
  5
4DC
331
4DB
  5
4DD
331
4DC
  5
4DE
331
4DD
  5
4DF
331
4DE
  5
4E0
331
4DF
  5
4E1
331
4E0
  5
4E2
331
4E1
  5
4E3
331
4E2
  5
4E4
331
4E3
  5
4E5
331
4E4
  5
4E6
331
4E5
  5
4E7
331
4E6
  5
4E8
331
4E7
  5
4E9
331
4E8
  5
4EA
331
4E9
  5
4EB
331
4EA
  5
4EC
331
4EB
  5
4ED
331
4EC
  5
4EE
331
4ED
  5
4EF
331
4EE
  5
4F0
331
4EF
  5
4F1
331
4F0
  5
4F2
331
4F1
  5
4F3
331
4F2
  5
4F4
331
4F3
  5
4F5
331
4F4
  5
4F6
331
4F5
  5
4F7
331
4F6
  5
4F8
331
4F7
  5
4F9
331
4F8
  5
4FA
331
4F9
  5
4FB
331
4FA
  5
4FC
331
4FB
  5
4FD
331
4FC
  5
4FE
331
4FD
  5
4FF
331
4FE
  5
500
331
4FF
  5
501
331
500
  5
502
331
501
  5
503
331
502
  5
504
331
503
  5
505
331
504
  5
506
331
505
  5
507
331
506
  5
508
331
507
  5
509
331
508
  5
50A
331
509
  5
50B
331
50A
  5
50C
331
50B
  5
50D
331
50C
  5
50E
331
50D
  5
50F
331
50E
  5
510
331
50F
  5
511
331
510
  5
512
331
511
  5
513
331
512
  5
514
331
513
  5
515
331
514
  5
516
331
515
  5
517
331
516
  5
518
331
517
  5
519
331
518
  5
51A
331
519
  5
51B
331
51A
  5
51C
331
51B
  5
51E
331
51C
  5
51F
331
51D
  5
520
331
51E
  5
521
331
51F
  5
522
331
520
  5
523
331
521
  5
524
331
522
  5
525
331
523
  5
526
331
524
  5
527
331
525
  5
528
331
526
  5
52A
331
527
  5
52C
331
528
  5
52D
331
529
  5
52E
331
52A
  5
52F
331
52B
  5
530
331
52C
  5
531
331
52D
  5
532
331
52E
  5
533
331
52F
  5
534
331
530
  5
535
331
531
  5
536
331
532
  5
537
331
533
  5
538
331
534
  5
539
331
535
  5
53A
331
536
  5
53B
331
537
  5
53C
331
538
  5
53D
331
539
  5
53E
331
53A
  5
53F
331
53B
  5
540
331
53C
  5
541
331
53D
  5
542
331
53E
  5
543
331
53F
  5
544
331
540
  5
545
331
541
  5
546
331
542
  5
547
331
543
  5
548
331
544
  5
549
331
545
  5
54A
331
546
  5
54B
331
547
  5
54C
331
548
  5
54D
331
549
  5
54E
331
54A
  5
54F
331
54B
  5
550
331
54C
  5
551
331
54D
  5
552
331
54E
  5
553
331
54F
  5
554
331
550
  5
555
331
551
  5
556
331
552
  5
557
331
553
  5
558
331
554
  5
559
331
555
  5
55A
331
556
  5
55B
331
557
  5
55C
331
558
  5
55D
331
559
  5
55E
331
55A
  5
55F
331
55B
  5
560
331
55C
  5
561
331
55D
  5
562
331
55E
  5
563
331
55F
  5
564
331
560
  5
565
331
561
  5
566
331
562
  5
567
331
563
  5
568
331
564
  5
569
331
565
  5
56A
331
566
  5
56B
331
567
  5
56C
331
568
  5
56D
331
569
  5
56E
331
56A
  5
56F
331
56B
  5
570
331
56C
  5
571
331
56D
  5
572
331
56E
  5
5A9
331
56F
  5
5AA
331
570
  5
5AB
331
5A7
  5
5AC
331
5A8
  5
5AD
331
5A9
  5
5AE
331
5AA
  5
5AF
331
5AB
  5
5B0
331
5AC
  5
5B1
331
5AD
  5
5B2
331
5AE
  5
5B3
331
5AF
  5
5B4
331
5B0
  5
5B5
331
5B1
  5
5B6
331
5B2
  5
5B7
331
5B3
  5
5B8
331
5B4
  5
5B9
331
5B5
  5
5BA
331
5B6
  5
5BB
331
5B7
  5
5BC
331
5B8
  5
5BD
331
5B9
  5
5BE
331
5BA
  5
5BF
331
5BB
  5
5C0
331
5BC
  5
5C1
331
5BD
  5
5C2
331
5BE
  5
5C3
331
5BF
  5
5C4
331
5C0
  5
5C5
331
5C1
  5
5C6
331
5C2
  5
5C7
331
5C3
  5
5CA
331
5C4
  5
5CB
331
5C5
  5
5CC
331
5C8
  5
5CD
331
5C9
  5
5CE
331
5CA
  5
5CF
331
5CB
  5
5D0
331
5CC
  5
5D1
331
5CD
  5
5D2
331
5CE
  5
5D3
331
5CF
  5
5D4
331
5D0
  5
5D5
331
5D1
  5
5E8
331
5D2
  5
652
331
5D3
  5
6D0
331
5E6
  5
6D1
331
650
  5
6D2
331
786
  5
78B
331
787
  5
78C
331
78B
  5
790
331
78C
  5
791
331
78D
  5
792
331
78E
  5
793
331
78F
  5
794
331
790
  5
795
331
791
  5
796
331
792
  5
797
331
793
  5
798
331
794
  5
799
331
795
  5
79A
331
796
  5
79B
331
797
  5
79C
331
798
  5
79D
331
799
  5
79E
331
79A
  5
79F
331
79B
  5
7A0
331
79C
  5
7A1
331
79D
  5
7A2
331
79E
  5
7A3
331
79F
  5
7A4
331
7A0
  5
7A5
331
7A1
  5
7A6
331
7A2
  5
7A7
331
7A3
  5
7A8
331
7A4
  5
7A9
331
7A5
  5
7AA
331
7A6
  5
7AB
331
7A7
  5
7AC
331
7A8
  5
7AD
331
7A9
  5
7AE
331
7AA
  5
7AF
331
7AB
  5
7B0
331
7AD
  5
7B2
331
7AF
  5
7B4
331
7B0
  5
7B5
331
7B1
  5
7B6
331
7B3
  5
7B8
331
7B4
  5
7B9
331
7B5
  5
7BA
331
7B6
  5
7BB
331
7B7
  5
7BC
331
7B8
  5
7BD
331
7B9
  5
7BE
331
7BA
  5
7BF
331
7BB
  5
7C0
331
7BC
  5
7C1
331
7BD
  5
7C2
331
7BE
  5
7C3
331
7BF
  5
7C4
331
7C0
  5
7C5
331
7C1
  5
7C6
331
7C2
  5
7C7
331
7C3
  5
7C8
331
7C4
  5
7C9
331
7C5
  5
7CA
331
7C6
  5
7CB
331
7C7
  5
7CC
331
7C8
  5
7CD
331
7C9
  5
7CE
331
7CA
  5
7CF
331
7CB
  5
7D0
331
7CC
  5
7D1
331
7CD
  5
7D2
331
7CE
  5
7D3
331
7CF
  5
7D4
331
7D0
  5
7D5
331
7D1
  5
7D6
331
7D2
  5
7D7
331
7D3
  5
7D8
331
7D4
  5
7D9
331
7D5
  5
7DA
331
7D6
  5
7DB
331
7D7
  5
7DC
331
7D8
  5
7DD
331
7D9
  5
7DE
331
7DA
  5
7DF
331
7DB
  5
7E0
331
7DC
  5
7E1
331
7DD
  5
7E2
331
7DE
  5
7E3
331
7DF
  5
7E4
331
7E0
  5
7E5
331
7E1
  5
7E6
331
7E2
  5
7E7
331
7E3
  5
7E8
331
7E4
  5
7E9
331
7E5
  5
7EA
331
7E6
  5
7EB
331
7E7
  5
7EC
331
7E8
  5
7ED
331
7E9
  5
7EE
331
7EB
  5
7F0
331
7EC
  5
7F1
331
7ED
  5
7F2
331
7EE
  5
7F3
331
7EF
  5
7F4
331
7F1
  5
7F6
331
7F2
  5
7F7
331
7F3
  5
7F8
331
7F5
  5
7FA
331
7F7
  5
7FC
331
7F8
  5
7FD
331
7F9
  5
7FE
331
7FB
  5
800
331
7FC
  5
801
331
7FD
  5
802
331
7FE
  5
803
331
7FF
  5
804
331
800
  5
805
331
801
  5
806
331
802
  5
807
331
803
  5
808
331
804
  5
809
331
808
  5
80D
331
809
  5
80E
331
80A
  5
80F
331
80B
  5
810
331
80C
  5
811
331
80D
  5
812
331
80E
  5
813
331
80F
  5
814
331
810
  5
815
331
811
  5
816
331
812
  5
817
331
813
  5
818
331
814
  5
819
331
815
  5
81A
331
816
  5
81B
331
817
  5
81C
331
818
  5
81D
331
819
  5
81E
331
81A
  5
81F
331
81B
  5
820
331
81C
  5
821
331
81D
  5
822
331
81E
  5
823
331
81F
  5
824
331
820
  5
825
331
821
  5
827
331
822
  5
828
331
823
  5
829
331
825
  5
82A
331
826
  5
82B
331
827
  5
82C
331
828
  5
82D
331
829
  5
82E
331
82A
  5
82F
331
82B
  5
830
331
82C
  5
831
331
830
  5
835
331
831
  5
836
331
832
  5
837
331
833
  5
838
331
837
  5
83C
331
838
  5
83D
331
839
  5
83E
331
83A
  5
83F
331
83B
  5
840
331
83C
  5
841
331
83D
  5
842
331
83E
  5
843
331
83F
  5
844
331
840
  5
845
331
841
  5
846
331
842
  5
847
331
844
  5
849
331
845
  5
84A
331
846
  5
84B
331
84A
  5
84F
331
84B
  5
850
331
84C
  5
851
331
84D
  5
852
331
84E
  5
853
331
84F
  5
854
331
850
  5
855
331
851
  5
856
331
852
  5
857
331
853
  5
858
331
857
  5
85C
331
858
  5
85D
331
859
  5
85E
331
85A
  5
85F
331
85E
  5
863
331
85F
  5
864
331
860
  5
865
331
861
  5
866
331
862
  5
867
331
863
  5
868
331
864
  5
869
331
865
  5
86A
331
866
  5
86B
331
867
  5
86C
331
868
  5
86D
331
869
  5
86E
331
86A
  5
86F
331
86B
  5
870
331
86C
  5
871
331
86D
  5
872
331
86E
  5
873
331
872
  5
877
331
873
  5
878
331
874
  5
879
331
875
  5
87A
331
876
  5
87B
331
877
  5
87C
331
878
  5
87D
331
879
  5
87E
331
87A
  5
87F
331
87B
  5
880
331
87C
  5
881
331
87D
  5
882
331
87E
  5
883
331
87F
  5
884
331
880
  5
885
331
881
  5
886
331
882
  5
887
331
883
  5
888
331
884
  5
889
331
885
  5
88A
331
886
  5
88B
331
887
  5
88C
331
888
  5
88D
331
889
  5
88E
331
88A
  5
88F
331
88B
  5
890
331
88C
  5
891
331
88D
  5
892
331
88E
  5
893
331
88F
  5
894
331
890
  5
895
331
891
  5
896
331
892
  5
897
331
893
  5
898
331
894
  5
899
331
895
  5
89A
331
896
  5
89B
331
897
  5
89C
331
898
  5
89D
331
899
  5
89E
331
89A
  5
89F
331
89B
  5
8A0
331
89C
  5
8A1
331
89D
  5
8A2
331
89E
  5
8A3
331
89F
  5
8A4
331
8A0
  5
8A5
331
8A1
  5
8A6
331
8A2
  5
8A7
331
8A3
  5
8A8
331
8A4
  5
8A9
331
8A5
  5
8AA
331
8A6
  5
8AB
331
8A7
  5
8AC
331
8A8
  5
8AD
331
8A9
  5
8AE
331
8AA
  5
8AF
331
8AB
  5
8B0
331
8AC
  5
8B1
331
8AD
  5
8B2
331
8AE
  5
8B3
331
8AF
  5
8B4
331
8B0
  5
8B5
331
8B1
  5
8B6
331
8B2
  5
8B7
331
8B3
  5
8C6
331
8B4
  5
8C7
331
8B5
  5
8C8
331
8C4
  5
8C9
331
8C5
  5
8CA
331
8C6
  5
8CB
331
8C7
  5
8CC
331
8C8
  5
8CD
331
8C9
  5
8CE
331
8CA
  5
8CF
331
8CB
  5
8D0
331
8CC
  5
8D1
331
8CE
  5
8D3
331
8CF
  5
8D4
331
8D2
  5
8D7
331
8D3
  5
8D8
331
8D4
  5
8D9
331
8D5
  5
8DA
331
8D6
  5
8DB
331
8D7
  5
8DC
331
8D8
  5
8DD
331
8D9
  5
8DE
331
8DA
  5
8DF
331
8DB
  5
8E0
331
8DC
  5
8E1
331
8DD
  5
8E2
331
8DE
  5
8E3
331
8DF
  5
8E4
331
8E0
  5
8E5
331
8E1
  5
8E6
331
8E2
  5
8E7
331
8E3
  5
8E8
331
8E4
  5
8E9
331
8E5
  5
8EA
331
8E6
  5
8EB
331
8E7
  5
8EC
331
8E8
  5
8ED
331
8EC
  5
8F1
331
8ED
  5
8F2
331
8EE
  5
8F3
331
8EF
  5
8F4
331
8F1
  5
8F6
331
8F2
  5
8F7
331
8F5
  5
8FA
331
8F6
  5
8FB
331
8FA
  5
8FF
331
8FB
  5
900
331
8FC
  5
901
331
8FD
  5
902
331
8FE
  5
903
331
8FF
  5
904
331
900
  5
905
331
901
  5
906
331
902
  5
907
331
903
  5
908
331
904
  5
909
331
905
  5
90A
331
906
  5
90B
331
907
  5
90C
331
908
  5
90D
331
909
  5
90E
331
90A
  5
90F
331
90B
  5
910
331
90C
  5
911
331
90D
  5
912
331
90E
  5
913
331
90F
  5
914
331
910
  5
915
331
911
  5
916
331
912
  5
917
331
913
  5
918
331
914
  5
919
331
916
  5
91B
331
917
  5
91C
331
918
  5
91D
331
919
  5
91E
331
91A
  5
91F
331
91B
  5
920
331
91C
  5
921
331
91D
  5
922
331
91E
  5
923
331
91F
  5
924
331
920
  5
925
331
921
  5
926
331
922
  5
927
331
923
  5
928
331
924
  5
929
331
928
  5
92D
331
929
  5
92E
331
92A
  5
92F
331
92B
  5
930
331
92F
  5
934
331
930
  5
935
331
931
  5
936
331
932
  5
937
331
933
  5
938
331
934
  5
939
331
935
  5
93A
331
936
  5
93B
331
937
  5
93C
331
938
  5
93D
331
939
  5
93E
331
93D
  5
942
331
93E
  5
943
331
93F
  5
944
331
940
  5
945
331
944
  5
949
331
945
  5
94A
331
946
  5
94B
331
947
  5
94C
331
948
  5
94D
331
949
  5
94E
331
94A
  5
94F
331
94B
  5
950
331
94C
  5
951
331
94D
  5
952
331
94E
  5
953
331
94F
  5
954
331
950
  5
955
331
951
  5
956
331
952
  5
957
331
953
  5
958
331
954
  5
959
331
955
  5
95A
331
959
  5
95E
331
95A
  5
95F
331
95B
  5
960
331
95D
  5
962
331
95E
  5
963
331
95F
  5
964
331
960
  5
965
331
962
  5
967
331
963
  5
968
331
964
  5
969
331
965
  5
96A
331
966
  5
96B
331
967
  5
994
331
968
  5
995
331
969
  5
9AD
331
96A
  5
9AF
331
96B
  5
9B0
331
995
  5
9B1
331
9AD
  5
9B2
331
9AE
  5
9B3
331
9AF
  5
9B6
331
9B0
  5
9E0
331
9B6
  5
A63
331
9E0
  5
A64
331
9E1
  5
471
331
9E8
  5
474
331
A5F
  5
A66
331
A63
  5
A67
331
A64
  5
A68
331
A66
  5
A69
331
A67
  5
A6A
331
A68
  5
A6B
331
A69
  5
A6C
331
A6A
  5
A6D
331
A6B
  5
A6E
331
A6C
  5
A6F
331
A6D
  5
A78
331
A6E
  5
A79
331
A6F
  5
A7A
331
A78
  5
A7D
331
A79
  5
A7E
331
A7A
  5
A7F
331
A7D
  5
A80
331
A7E
  5
A82
331
A7F
  5
A83
331
A80
  5
A84
331
A83
  5
A86
331
A84
  5
A88
331
A85
  5
A89
331
A86
  5
A8A
331
A88
  5
A8B
331
A89
  5
A8C
331
A8A
  5
A8D
331
A8C
  5
A8F
331
A8D
  5
A90
331
A8E
  5
A92
331
A8F
  5
A93
331
A90
  5
A94
331
A92
  5
A96
331
A93
  5
A97
331
A94
  5
A99
331
A96
  5
A9A
331
A97
  5
A9B
331
A99
  5
A9C
331
A9A
  5
A9D
331
A9B
  5
A9E
331
A9C
  5
A9F
331
A9D
  5
AA5
331
A9E
  5
AA6
331
A9F
  5
AA7
331
AA5
  5
ADA
331
AA6
  5
B09
331
AA7
  5
B0A
331
ADA
  5
B0B
331
B09
  5
B38
331
B0A
  5
B95
331
B0B
  5
BDF
331
B38
  5
BE0
331
B95
  5
BE1
331
BDF
  5
BE2
331
BE0
  5
BE3
331
BE1
  5
BE4
331
BE2
  5
BE5
331
BE3
  5
BE6
331
BE4
  5
BE7
331
BE5
  5
BE8
331
BE6
  5
BE9
331
BE7
  5
BEA
331
BE8
  5
BEC
331
BE9
  5
BED
331
BEA
  5
BEE
331
BEC
  5
BEF
331
BED
  5
BF0
331
BEE
  5
EC6
331
BEF
  5
ECA
331
BF0
  5
ECE
331
EC6
  5
51D
331
ECA
  5
52B
331
ECE
  5
529
  0
SORTENTSTABLE
  5
A13
102
{ACAD_REACTORS
330
A12
330
A12
102
}
330
A12
100
AcDbSortentsTable
330
9EC
  0
SORTENTSTABLE
  5
AD5
102
{ACAD_REACTORS
330
AD4
330
AD4
102
}
330
AD4
100
AcDbSortentsTable
330
AAF
  0
SORTENTSTABLE
  5
B02
102
{ACAD_REACTORS
330
B01
330
B01
102
}
330
B01
100
AcDbSortentsTable
330
ADB
  0
SORTENTSTABLE
  5
B33
102
{ACAD_REACTORS
330
B32
330
B32
102
}
330
B32
100
AcDbSortentsTable
330
B0C
  0
SORTENTSTABLE
  5
B60
102
{ACAD_REACTORS
330
B5F
330
B5F
102
}
330
B5F
100
AcDbSortentsTable
330
B39
  0
SORTENTSTABLE
  5
B8C
102
{ACAD_REACTORS
330
B8B
330
B8B
102
}
330
B8B
100
AcDbSortentsTable
330
B65
  0
SORTENTSTABLE
  5
BBE
102
{ACAD_REACTORS
330
BBD
330
BBD
102
}
330
BBD
100
AcDbSortentsTable
330
B97
  0
DICTIONARY
  5
9E6
102
{ACAD_REACTORS
330
9E5
102
}
330
9E5
100
AcDbDictionary
281
     1
  3
ACDB_ANNOTATIONSCALES
350
9E7
  0
DICTIONARY
  5
9EA
102
{ACAD_REACTORS
330
9E9
102
}
330
9E9
100
AcDbDictionary
281
     1
  3
ACDB_ANNOTATIONSCALES
350
9EB
  0
DICTIONARY
  5
EC8
102
{ACAD_REACTORS
330
EC7
102
}
330
EC7
100
AcDbDictionary
281
     1
  3
ACDB_ANNOTATIONSCALES
350
EC9
  0
DICTIONARY
  5
ECC
102
{ACAD_REACTORS
330
ECB
102
}
330
ECB
100
AcDbDictionary
281
     1
  3
ACDB_ANNOTATIONSCALES
350
ECD
  0
DICTIONARY
  5
ED0
102
{ACAD_REACTORS
330
ECF
102
}
330
ECF
100
AcDbDictionary
281
     1
  3
ACDB_ANNOTATIONSCALES
350
ED1
  0
LAYOUT
  5
1C
102
{ACAD_REACTORS
330
1A
102
}
330
1A
100
AcDbPlotSettings
  1

  2
none_device
  4

  6

 40
0.0
 41
0.0
 42
0.0
 43
0.0
 44
0.0
 45
0.0
 46
0.0
 47
0.0
 48
0.0
 49
0.0
140
0.0
141
0.0
142
1.0
143
1.0
 70
   688
 72
     0
 73
     0
 74
     5
  7
monochrome.ctb
 75
    16
 76
     0
 77
     2
 78
   300
147
1.0
148
0.0
149
0.0
100
AcDbLayout
  1
Layout1
 70
     1
 71
     1
 10
0.0
 20
0.0
 11
12.0
 21
9.0
 12
0.0
 22
0.0
 32
0.0
 14
1.000000000000E+20
 24
1.000000000000E+20
 34
1.000000000000E+20
 15
-1.000000000000E+20
 25
-1.000000000000E+20
 35
-1.000000000000E+20
146
0.0
 13
0.0
 23
0.0
 33
0.0
 16
1.0
 26
0.0
 36
0.0
 17
0.0
 27
1.0
 37
0.0
 76
     0
330
1B
  0
LAYOUT
  5
1E
102
{ACAD_REACTORS
330
1A
102
}
330
1A
100
AcDbPlotSettings
  1

  2
RICOH imagio MP C3500 RPCS
  4
A3
  6

 40
5.08
 41
5.08
 42
5.08
 43
5.08
 44
297.0
 45
420.0
 46
6.247192851824
 47
0.0
 48
-18.0647
 49
16.9013
140
603.4492
141
408.2849
142
1.0
143
67.445173202584
 70
  1716
 72
     0
 73
     1
 74
     0
  7
monochrome.ctb
 75
     0
 76
     0
 77
     2
 78
   300
147
0.014826857913
148
4431.18490994421
149
2349.288020410332
100
AcDbLayout
  1
Model
 70
     1
 71
     0
 10
0.0
 20
0.0
 11
12.0
 21
9.0
 12
0.0
 22
0.0
 32
0.0
 14
15.499998
 24
50.731474542942
 34
0.0
 15
538.290163
 25
362.513852006262
 35
0.0
146
0.0
 13
0.0
 23
0.0
 33
0.0
 16
1.0
 26
0.0
 36
0.0
 17
0.0
 27
1.0
 37
0.0
 76
     0
330
1D
331
3B
  0
MATERIAL
  5
77E
102
{ACAD_REACTORS
330
77C
102
}
330
77C
100
AcDbMaterial
  1
ByBlock
 72
     1
 94
      127
  0
MATERIAL
  5
77D
102
{ACAD_REACTORS
330
77C
102
}
330
77C
100
AcDbMaterial
  1
ByLayer
 72
     1
 94
      127
  0
MATERIAL
  5
77F
102
{ACAD_REACTORS
330
77C
102
}
330
77C
100
AcDbMaterial
  1
Global
 72
     1
 94
      127
  0
MLEADERSTYLE
  5
783
102
{ACAD_REACTORS
330
782
102
}
330
782
100
AcDbMLeaderStyle
179
     2
170
     2
171
     1
172
     0
 90
        2
 40
0.0
 41
0.0
173
     1
 91
-1056964608
340
14
 92
       -2
290
     1
 42
0.09
291
     1
 43
0.36
  3
Standard
341
0
 44
0.18
300

342
11
174
     1
178
     6
175
     1
176
     0
 93
-1056964608
 45
0.18
292
     0
297
     0
 46
0.18
343
0
 94
-1056964608
 47
1.0
 49
1.0
140
1.0
293
     1
141
0.0
294
     1
177
     0
142
1.0
295
     0
296
     0
143
0.125
271
     0
272
     9
273
     9
298
     0
  0
MLINESTYLE
  5
18
102
{ACAD_REACTORS
330
17
102
}
330
17
100
AcDbMlineStyle
  2
Standard
 70
     0
  3

 62
   256
 51
90.0
 52
90.0
 71
     2
 49
0.5
 62
   256
  6
BYLAYER
 49
-0.5
 62
   256
  6
BYLAYER
  0
ACDBPLACEHOLDER
  5
F
102
{ACAD_REACTORS
330
E
102
}
330
E
  0
SCALE
  5
73E
102
{ACAD_REACTORS
330
73D
102
}
330
73D
100
AcDbScale
 70
     0
300
1:1
140
1.0
141
1.0
290
     1
  0
SCALE
  5
73F
102
{ACAD_REACTORS
330
73D
102
}
330
73D
100
AcDbScale
 70
     0
300
1:2
140
1.0
141
2.0
290
     0
  0
SCALE
  5
740
102
{ACAD_REACTORS
330
73D
102
}
330
73D
100
AcDbScale
 70
     0
300
1:4
140
1.0
141
4.0
290
     0
  0
SCALE
  5
741
102
{ACAD_REACTORS
330
73D
102
}
330
73D
100
AcDbScale
 70
     0
300
1:5
140
1.0
141
5.0
290
     0
  0
SCALE
  5
742
102
{ACAD_REACTORS
330
73D
102
}
330
73D
100
AcDbScale
 70
     0
300
1:8
140
1.0
141
8.0
290
     0
  0
SCALE
  5
743
102
{ACAD_REACTORS
330
73D
102
}
330
73D
100
AcDbScale
 70
     0
300
1:10
140
1.0
141
10.0
290
     0
  0
SCALE
  5
744
102
{ACAD_REACTORS
330
73D
102
}
330
73D
100
AcDbScale
 70
     0
300
1:16
140
1.0
141
16.0
290
     0
  0
SCALE
  5
745
102
{ACAD_REACTORS
330
73D
102
}
330
73D
100
AcDbScale
 70
     0
300
1:20
140
1.0
141
20.0
290
     0
  0
SCALE
  5
746
102
{ACAD_REACTORS
330
73D
102
}
330
73D
100
AcDbScale
 70
     0
300
1:30
140
1.0
141
30.0
290
     0
  0
SCALE
  5
747
102
{ACAD_REACTORS
330
73D
102
}
330
73D
100
AcDbScale
 70
     0
300
1:40
140
1.0
141
40.0
290
     0
  0
SCALE
  5
748
102
{ACAD_REACTORS
330
73D
102
}
330
73D
100
AcDbScale
 70
     0
300
1:50
140
1.0
141
50.0
290
     0
  0
SCALE
  5
749
102
{ACAD_REACTORS
330
73D
102
}
330
73D
100
AcDbScale
 70
     0
300
1:100
140
1.0
141
100.0
290
     0
  0
SCALE
  5
74A
102
{ACAD_REACTORS
330
73D
102
}
330
73D
100
AcDbScale
 70
     0
300
2:1
140
2.0
141
1.0
290
     0
  0
SCALE
  5
74B
102
{ACAD_REACTORS
330
73D
102
}
330
73D
100
AcDbScale
 70
     0
300
4:1
140
4.0
141
1.0
290
     0
  0
SCALE
  5
74C
102
{ACAD_REACTORS
330
73D
102
}
330
73D
100
AcDbScale
 70
     0
300
8:1
140
8.0
141
1.0
290
     0
  0
SCALE
  5
74D
102
{ACAD_REACTORS
330
73D
102
}
330
73D
100
AcDbScale
 70
     0
300
10:1
140
10.0
141
1.0
290
     0
  0
SCALE
  5
74E
102
{ACAD_REACTORS
330
73D
102
}
330
73D
100
AcDbScale
 70
     0
300
100:1
140
100.0
141
1.0
290
     0
  0
SCALE
  5
74F
102
{ACAD_REACTORS
330
73D
102
}
330
73D
100
AcDbScale
 70
     0
300
1/128" = 1'-0"
140
0.0078125
141
12.0
290
     0
  0
SCALE
  5
750
102
{ACAD_REACTORS
330
73D
102
}
330
73D
100
AcDbScale
 70
     0
300
1/64" = 1'-0"
140
0.015625
141
12.0
290
     0
  0
SCALE
  5
751
102
{ACAD_REACTORS
330
73D
102
}
330
73D
100
AcDbScale
 70
     0
300
1/32" = 1'-0"
140
0.03125
141
12.0
290
     0
  0
SCALE
  5
752
102
{ACAD_REACTORS
330
73D
102
}
330
73D
100
AcDbScale
 70
     0
300
1/16" = 1'-0"
140
0.0625
141
12.0
290
     0
  0
SCALE
  5
753
102
{ACAD_REACTORS
330
73D
102
}
330
73D
100
AcDbScale
 70
     0
300
3/32" = 1'-0"
140
0.09375
141
12.0
290
     0
  0
SCALE
  5
754
102
{ACAD_REACTORS
330
73D
102
}
330
73D
100
AcDbScale
 70
     0
300
1/8" = 1'-0"
140
0.125
141
12.0
290
     0
  0
SCALE
  5
755
102
{ACAD_REACTORS
330
73D
102
}
330
73D
100
AcDbScale
 70
     0
300
3/16" = 1'-0"
140
0.1875
141
12.0
290
     0
  0
SCALE
  5
756
102
{ACAD_REACTORS
330
73D
102
}
330
73D
100
AcDbScale
 70
     0
300
1/4" = 1'-0"
140
0.25
141
12.0
290
     0
  0
SCALE
  5
757
102
{ACAD_REACTORS
330
73D
102
}
330
73D
100
AcDbScale
 70
     0
300
3/8" = 1'-0"
140
0.375
141
12.0
290
     0
  0
SCALE
  5
758
102
{ACAD_REACTORS
330
73D
102
}
330
73D
100
AcDbScale
 70
     0
300
1/2" = 1'-0"
140
0.5
141
12.0
290
     0
  0
SCALE
  5
759
102
{ACAD_REACTORS
330
73D
102
}
330
73D
100
AcDbScale
 70
     0
300
3/4" = 1'-0"
140
0.75
141
12.0
290
     0
  0
SCALE
  5
75A
102
{ACAD_REACTORS
330
73D
102
}
330
73D
100
AcDbScale
 70
     0
300
1" = 1'-0"
140
1.0
141
12.0
290
     0
  0
SCALE
  5
75B
102
{ACAD_REACTORS
330
73D
102
}
330
73D
100
AcDbScale
 70
     0
300
1-1/2" = 1'-0"
140
1.5
141
12.0
290
     0
  0
SCALE
  5
75C
102
{ACAD_REACTORS
330
73D
102
}
330
73D
100
AcDbScale
 70
     0
300
3" = 1'-0"
140
3.0
141
12.0
290
     0
  0
SCALE
  5
75D
102
{ACAD_REACTORS
330
73D
102
}
330
73D
100
AcDbScale
 70
     0
300
6" = 1'-0"
140
6.0
141
12.0
290
     0
  0
SCALE
  5
75E
102
{ACAD_REACTORS
330
73D
102
}
330
73D
100
AcDbScale
 70
     0
300
1'-0" = 1'-0"
140
12.0
141
12.0
290
     0
  0
TABLESTYLE
  5
781
102
{ACAD_REACTORS
330
780
102
}
102
{ACAD_XDICTIONARY
360
109B
102
}
330
780
100
AcDbTableStyle
  3
Standard
 70
     0
 71
     0
 40
0.06
 41
0.06
280
     0
281
     0
  7
Standard
140
0.18
170
     2
 62
     0
 63
   257
283
     0
 90
        4
 91
        0
  1

274
    -2
284
     1
 64
     0
275
    -2
285
     1
 65
     0
276
    -2
286
     1
 66
     0
277
    -2
287
     1
 67
     0
278
    -2
288
     1
 68
     0
279
    -2
289
     1
 69
     0
  7
Standard
140
0.25
170
     5
 62
     0
 63
   257
283
     0
 90
        4
 91
        0
  1

274
    -2
284
     1
 64
     0
275
    -2
285
     1
 65
     0
276
    -2
286
     1
 66
     0
277
    -2
287
     1
 67
     0
278
    -2
288
     1
 68
     0
279
    -2
289
     1
 69
     0
  7
Standard
140
0.18
170
     5
 62
     0
 63
   257
283
     0
 90
        4
 91
        0
  1

274
    -2
284
     1
 64
     0
275
    -2
285
     1
 65
     0
276
    -2
286
     1
 66
     0
277
    -2
287
     1
 67
     0
278
    -2
288
     1
 68
     0
279
    -2
289
     1
 69
     0
  0
VISUALSTYLE
  5
768
102
{ACAD_REACTORS
330
763
102
}
330
763
100
AcDbVisualStyle
  2
2dWireframe
 70
     4
177
     3
291
     0
 70
    58
 90
        0
176
     1
 90
        2
176
     1
 90
        0
176
     1
 90
        0
176
     1
 40
0.6
176
     1
 40
30.0
176
     1
 62
     7
176
     1
 90
        1
176
     1
 90
        4
176
     1
 62
     7
176
     1
 62
   257
176
     1
 90
        1
176
     1
 90
        1
176
     1
 40
1.0
176
     1
 90
        0
176
     1
 62
   257
176
     1
 40
1.0
176
     1
 90
        1
176
     1
 90
        6
176
     1
 90
        2
176
     1
 62
     7
176
     1
 90
        5
176
     1
 90
        0
176
     1
 90
        0
176
     1
290
     0
176
     1
 90
        1
176
     1
 40
0.0
176
     1
 90
        0
176
     1
290
     1
176
     1
290
     1
176
     1
290
     0
176
     1
290
     0
176
     1
290
     0
176
     1
290
     0
176
     1
290
     0
176
     1
290
     0
176
     1
290
     0
176
     1
 90
       50
176
     1
 40
0.0
176
     1
 40
1.0
176
     1
 90
        0
176
     1
 62
    18
420
        0
176
     1
 90
       50
176
     1
 90
        3
176
     1
 62
     5
420
      255
176
     1
290
     0
176
     1
 90
       50
176
     1
 90
       50
176
     1
 90
       50
176
     1
290
     0
176
     1
 90
       50
176
     1
 62
   256
176
     0
 40
1.0
176
     0
 90
        2
176
     1
  1
strokes_ogs.tif
176
     1
290
     0
176
     1
 40
1.0
176
     1
 40
1.0
176
     1
  0
VISUALSTYLE
  5
76B
102
{ACAD_REACTORS
330
763
102
}
330
763
100
AcDbVisualStyle
  2
Basic
 70
     7
177
     3
291
     1
 70
    58
 90
        1
176
     1
 90
        0
176
     1
 90
        1
176
     1
 90
        0
176
     1
 40
0.6
176
     1
 40
30.0
176
     1
 62
     7
176
     1
 90
        0
176
     1
 90
        4
176
     1
 62
     7
176
     1
 62
   257
176
     1
 90
        1
176
     1
 90
        1
176
     1
 40
1.0
176
     1
 90
        8
176
     1
 62
     7
176
     1
 40
1.0
176
     1
 90
        1
176
     1
 90
        6
176
     1
 90
        2
176
     1
 62
     7
176
     1
 90
        5
176
     1
 90
        0
176
     1
 90
        0
176
     1
290
     0
176
     1
 90
        1
176
     1
 40
0.0
176
     1
 90
        0
176
     1
290
     0
176
     1
290
     1
176
     1
290
     1
176
     1
290
     0
176
     1
290
     0
176
     1
290
     0
176
     1
290
     0
176
     1
290
     0
176
     1
290
     0
176
     1
 90
       50
176
     1
 40
0.0
176
     1
 40
1.0
176
     1
 90
        0
176
     1
 62
    18
420
        0
176
     1
 90
       50
176
     1
 90
        3
176
     1
 62
     5
420
      255
176
     1
290
     0
176
     1
 90
       50
176
     1
 90
       50
176
     1
 90
       50
176
     1
290
     0
176
     1
 90
       50
176
     1
 62
   256
176
     0
 40
1.0
176
     0
 90
        2
176
     1
  1
strokes_ogs.tif
176
     1
290
     0
176
     1
 40
1.0
176
     1
 40
1.0
176
     1
  0
VISUALSTYLE
  5
76F
102
{ACAD_REACTORS
330
763
102
}
330
763
100
AcDbVisualStyle
  2
Brighten
 70
    12
177
     3
291
     1
 70
    58
 90
        2
176
     1
 90
        2
176
     1
 90
        0
176
     1
 90
        0
176
     1
 40
0.6
176
     1
 40
30.0
176
     1
 62
     7
176
     1
 90
        1
176
     1
 90
        4
176
     1
 62
     7
176
     1
 62
   257
176
     1
 90
        1
176
     1
 90
        1
176
     1
 40
1.0
176
     1
 90
        8
176
     1
 62
     7
176
     1
 40
1.0
176
     1
 90
        1
176
     1
 90
        6
176
     1
 90
        2
176
     1
 62
     7
176
     1
 90
        5
176
     1
 90
        0
176
     1
 90
        0
176
     1
290
     0
176
     1
 90
        1
176
     1
 40
50.0
176
     1
 90
        0
176
     1
290
     0
176
     1
290
     1
176
     1
290
     1
176
     1
290
     0
176
     1
290
     0
176
     1
290
     0
176
     1
290
     0
176
     1
290
     0
176
     1
290
     0
176
     1
 90
       50
176
     1
 40
0.0
176
     1
 40
1.0
176
     1
 90
        0
176
     1
 62
    18
420
        0
176
     1
 90
       50
176
     1
 90
        3
176
     1
 62
     5
420
      255
176
     1
290
     0
176
     1
 90
       50
176
     1
 90
       50
176
     1
 90
       50
176
     1
290
     0
176
     1
 90
       50
176
     1
 62
   256
176
     0
 40
1.0
176
     0
 90
        2
176
     1
  1
strokes_ogs.tif
176
     1
290
     0
176
     1
 40
1.0
176
     1
 40
1.0
176
     1
  0
VISUALSTYLE
  5
773
102
{ACAD_REACTORS
330
763
102
}
330
763
100
AcDbVisualStyle
  2
ColorChange
 70
    16
177
     3
291
     1
 70
    58
 90
        2
176
     1
 90
        2
176
     1
 90
        3
176
     1
 90
        0
176
     1
 40
0.6
176
     1
 40
30.0
176
     1
 62
     8
176
     1
 90
        1
176
     1
 90
        4
176
     1
 62
     7
176
     1
 62
   257
176
     1
 90
        1
176
     1
 90
        1
176
     1
 40
1.0
176
     1
 90
        8
176
     1
 62
     8
176
     1
 40
1.0
176
     1
 90
        1
176
     1
 90
        6
176
     1
 90
        2
176
     1
 62
     7
176
     1
 90
        5
176
     1
 90
        0
176
     1
 90
        0
176
     1
290
     0
176
     1
 90
        1
176
     1
 40
0.0
176
     1
 90
        0
176
     1
290
     0
176
     1
290
     1
176
     1
290
     1
176
     1
290
     0
176
     1
290
     0
176
     1
290
     0
176
     1
290
     0
176
     1
290
     0
176
     1
290
     0
176
     1
 90
       50
176
     1
 40
0.0
176
     1
 40
1.0
176
     1
 90
        0
176
     1
 62
    18
420
        0
176
     1
 90
       50
176
     1
 90
        3
176
     1
 62
     5
420
      255
176
     1
290
     0
176
     1
 90
       50
176
     1
 90
       50
176
     1
 90
       50
176
     1
290
     0
176
     1
 90
       50
176
     1
 62
   256
176
     0
 40
1.0
176
     0
 90
        2
176
     1
  1
strokes_ogs.tif
176
     1
290
     0
176
     1
 40
1.0
176
     1
 40
1.0
176
     1
  0
VISUALSTYLE
  5
76D
102
{ACAD_REACTORS
330
763
102
}
330
763
100
AcDbVisualStyle
  2
Conceptual
 70
     9
177
     3
291
     0
 70
    58
 90
        3
176
     1
 90
        2
176
     1
 90
        0
176
     1
 90
        0
176
     1
 40
0.6
176
     1
 40
30.0
176
     1
 62
     7
176
     1
 90
        2
176
     1
 90
        2
176
     1
 62
     7
176
     1
 62
   257
176
     1
 90
        1
176
     1
 90
        1
176
     1
 40
179.0
176
     1
 90
        8
176
     1
 62
     7
176
     1
 40
1.0
176
     1
 90
        1
176
     1
 90
        6
176
     1
 90
        2
176
     1
 62
     7
176
     1
 90
        3
176
     1
 90
        0
176
     1
 90
        0
176
     1
290
     0
176
     1
 90
        1
176
     1
 40
0.0
176
     1
 90
        0
176
     1
290
     0
176
     1
290
     1
176
     1
290
     1
176
     1
290
     0
176
     1
290
     0
176
     1
290
     0
176
     1
290
     0
176
     1
290
     0
176
     1
290
     0
176
     1
 90
       50
176
     1
 40
0.0
176
     1
 40
1.0
176
     1
 90
        0
176
     1
 62
    18
420
        0
176
     1
 90
       50
176
     1
 90
        3
176
     1
 62
     5
420
      255
176
     1
290
     0
176
     1
 90
       50
176
     1
 90
       50
176
     1
 90
       50
176
     1
290
     0
176
     1
 90
       50
176
     1
 62
   256
176
     0
 40
1.0
176
     0
 90
        2
176
     1
  1
strokes_ogs.tif
176
     1
290
     0
176
     1
 40
1.0
176
     1
 40
1.0
176
     1
  0
VISUALSTYLE
  5
76E
102
{ACAD_REACTORS
330
763
102
}
330
763
100
AcDbVisualStyle
  2
Dim
 70
    11
177
     3
291
     1
 70
    58
 90
        2
176
     1
 90
        2
176
     1
 90
        0
176
     1
 90
        0
176
     1
 40
0.6
176
     1
 40
30.0
176
     1
 62
     7
176
     1
 90
        1
176
     1
 90
        4
176
     1
 62
     7
176
     1
 62
   257
176
     1
 90
        1
176
     1
 90
        1
176
     1
 40
1.0
176
     1
 90
        8
176
     1
 62
     7
176
     1
 40
1.0
176
     1
 90
        1
176
     1
 90
        6
176
     1
 90
        2
176
     1
 62
     7
176
     1
 90
        5
176
     1
 90
        0
176
     1
 90
        0
176
     1
290
     0
176
     1
 90
        1
176
     1
 40
-50.0
176
     1
 90
        0
176
     1
290
     0
176
     1
290
     1
176
     1
290
     1
176
     1
290
     0
176
     1
290
     0
176
     1
290
     0
176
     1
290
     0
176
     1
290
     0
176
     1
290
     0
176
     1
 90
       50
176
     1
 40
0.0
176
     1
 40
1.0
176
     1
 90
        0
176
     1
 62
    18
420
        0
176
     1
 90
       50
176
     1
 90
        3
176
     1
 62
     5
420
      255
176
     1
290
     0
176
     1
 90
       50
176
     1
 90
       50
176
     1
 90
       50
176
     1
290
     0
176
     1
 90
       50
176
     1
 62
   256
176
     0
 40
1.0
176
     0
 90
        2
176
     1
  1
strokes_ogs.tif
176
     1
290
     0
176
     1
 40
1.0
176
     1
 40
1.0
176
     1
  0
VISUALSTYLE
  5
776
102
{ACAD_REACTORS
330
763
102
}
330
763
100
AcDbVisualStyle
  2
EdgeColorOff
 70
    22
177
     3
291
     1
 70
    58
 90
        2
176
     1
 90
        2
176
     1
 90
        0
176
     1
 90
        0
176
     1
 40
0.6
176
     1
 40
30.0
176
     1
 62
     7
176
     1
 90
        1
176
     1
 90
        4
176
     1
 62
     7
176
     1
 62
   257
176
     1
 90
        1
176
     1
 90
        1
176
     1
 40
1.0
176
     1
 90
        8
176
     1
 62
     7
176
     1
 40
1.0
176
     1
 90
        1
176
     1
 90
        6
176
     1
 90
        2
176
     1
 62
     7
176
     1
 90
        5
176
     1
 90
        0
176
     1
 90
        0
176
     1
290
     0
176
     1
 90
        1
176
     1
 40
0.0
176
     1
 90
        0
176
     1
290
     0
176
     1
290
     1
176
     1
290
     1
176
     1
290
     0
176
     1
290
     0
176
     1
290
     0
176
     1
290
     0
176
     1
290
     0
176
     1
290
     0
176
     1
 90
       50
176
     1
 40
0.0
176
     1
 40
1.0
176
     1
 90
        0
176
     1
 62
    18
420
        0
176
     1
 90
       50
176
     1
 90
        3
176
     1
 62
     5
420
      255
176
     1
290
     0
176
     1
 90
       50
176
     1
 90
       50
176
     1
 90
       50
176
     1
290
     0
176
     1
 90
       50
176
     1
 62
   256
176
     0
 40
1.0
176
     0
 90
        2
176
     1
  1
strokes_ogs.tif
176
     1
290
     0
176
     1
 40
1.0
176
     1
 40
1.0
176
     1
  0
VISUALSTYLE
  5
772
102
{ACAD_REACTORS
330
763
102
}
330
763
100
AcDbVisualStyle
  2
Facepattern
 70
    15
177
     3
291
     1
 70
    58
 90
        2
176
     1
 90
        2
176
     1
 90
        0
176
     1
 90
        0
176
     1
 40
0.6
176
     1
 40
30.0
176
     1
 62
     7
176
     1
 90
        1
176
     1
 90
        4
176
     1
 62
     7
176
     1
 62
   257
176
     1
 90
        1
176
     1
 90
        1
176
     1
 40
1.0
176
     1
 90
        8
176
     1
 62
     7
176
     1
 40
1.0
176
     1
 90
        1
176
     1
 90
        6
176
     1
 90
        2
176
     1
 62
     7
176
     1
 90
        5
176
     1
 90
        0
176
     1
 90
        0
176
     1
290
     0
176
     1
 90
        1
176
     1
 40
0.0
176
     1
 90
        0
176
     1
290
     0
176
     1
290
     1
176
     1
290
     1
176
     1
290
     0
176
     1
290
     0
176
     1
290
     0
176
     1
290
     0
176
     1
290
     0
176
     1
290
     0
176
     1
 90
       50
176
     1
 40
0.0
176
     1
 40
1.0
176
     1
 90
        0
176
     1
 62
    18
420
        0
176
     1
 90
       50
176
     1
 90
        3
176
     1
 62
     5
420
      255
176
     1
290
     0
176
     1
 90
       50
176
     1
 90
       50
176
     1
 90
       50
176
     1
290
     0
176
     1
 90
       50
176
     1
 62
   256
176
     0
 40
1.0
176
     0
 90
        2
176
     1
  1
strokes_ogs.tif
176
     1
290
     0
176
     1
 40
1.0
176
     1
 40
1.0
176
     1
  0
VISUALSTYLE
  5
764
102
{ACAD_REACTORS
330
763
102
}
330
763
100
AcDbVisualStyle
  2
Flat
 70
     0
177
     3
291
     1
 70
    58
 90
        2
176
     1
 90
        1
176
     1
 90
        1
176
     1
 90
        2
176
     1
 40
0.6
176
     1
 40
30.0
176
     1
 62
     7
176
     1
 90
        0
176
     1
 90
        0
176
     1
 62
     7
176
     1
 62
   257
176
     1
 90
        1
176
     1
 90
        1
176
     1
 40
1.0
176
     1
 90
        8
176
     1
 62
     7
176
     1
 40
1.0
176
     1
 90
        1
176
     1
 90
        6
176
     1
 90
        2
176
     1
 62
     7
176
     1
 90
        5
176
     1
 90
        0
176
     1
 90
        0
176
     1
290
     0
176
     1
 90
       13
176
     1
 40
0.0
176
     1
 90
        0
176
     1
290
     0
176
     1
290
     1
176
     1
290
     1
176
     1
290
     0
176
     1
290
     0
176
     1
290
     0
176
     1
290
     0
176
     1
290
     0
176
     1
290
     0
176
     1
 90
       50
176
     1
 40
0.0
176
     1
 40
1.0
176
     1
 90
        0
176
     1
 62
    18
420
        0
176
     1
 90
       50
176
     1
 90
        3
176
     1
 62
     5
420
      255
176
     1
290
     0
176
     1
 90
       50
176
     1
 90
       50
176
     1
 90
       50
176
     1
290
     0
176
     1
 90
       50
176
     1
 62
   256
176
     0
 40
1.0
176
     0
 90
        2
176
     1
  1
strokes_ogs.tif
176
     1
290
     0
176
     1
 40
1.0
176
     1
 40
1.0
176
     1
  0
VISUALSTYLE
  5
765
102
{ACAD_REACTORS
330
763
102
}
330
763
100
AcDbVisualStyle
  2
FlatWithEdges
 70
     1
177
     3
291
     1
 70
    58
 90
        2
176
     1
 90
        1
176
     1
 90
        1
176
     1
 90
        2
176
     1
 40
0.6
176
     1
 40
30.0
176
     1
 62
     7
176
     1
 90
        1
176
     1
 90
        0
176
     1
 62
     7
176
     1
 62
   257
176
     1
 90
        1
176
     1
 90
        1
176
     1
 40
1.0
176
     1
 90
        0
176
     1
 62
   257
176
     1
 40
1.0
176
     1
 90
        1
176
     1
 90
        6
176
     1
 90
        2
176
     1
 62
     7
176
     1
 90
        5
176
     1
 90
        0
176
     1
 90
        0
176
     1
290
     0
176
     1
 90
       13
176
     1
 40
0.0
176
     1
 90
        0
176
     1
290
     0
176
     1
290
     1
176
     1
290
     1
176
     1
290
     0
176
     1
290
     0
176
     1
290
     0
176
     1
290
     0
176
     1
290
     0
176
     1
290
     0
176
     1
 90
       50
176
     1
 40
0.0
176
     1
 40
1.0
176
     1
 90
        0
176
     1
 62
    18
420
        0
176
     1
 90
       50
176
     1
 90
        3
176
     1
 62
     5
420
      255
176
     1
290
     0
176
     1
 90
       50
176
     1
 90
       50
176
     1
 90
       50
176
     1
290
     0
176
     1
 90
       50
176
     1
 62
   256
176
     0
 40
1.0
176
     0
 90
        2
176
     1
  1
strokes_ogs.tif
176
     1
290
     0
176
     1
 40
1.0
176
     1
 40
1.0
176
     1
  0
VISUALSTYLE
  5
766
102
{ACAD_REACTORS
330
763
102
}
330
763
100
AcDbVisualStyle
  2
Gouraud
 70
     2
177
     3
291
     1
 70
    58
 90
        2
176
     1
 90
        2
176
     1
 90
        1
176
     1
 90
        2
176
     1
 40
0.6
176
     1
 40
30.0
176
     1
 62
     7
176
     1
 90
        0
176
     1
 90
        0
176
     1
 62
     7
176
     1
 62
   257
176
     1
 90
        1
176
     1
 90
        1
176
     1
 40
1.0
176
     1
 90
        0
176
     1
 62
     7
176
     1
 40
1.0
176
     1
 90
        1
176
     1
 90
        6
176
     1
 90
        2
176
     1
 62
     7
176
     1
 90
        5
176
     1
 90
        0
176
     1
 90
        0
176
     1
290
     0
176
     1
 90
       13
176
     1
 40
0.0
176
     1
 90
        0
176
     1
290
     0
176
     1
290
     1
176
     1
290
     1
176
     1
290
     0
176
     1
290
     0
176
     1
290
     0
176
     1
290
     0
176
     1
290
     0
176
     1
290
     0
176
     1
 90
       50
176
     1
 40
0.0
176
     1
 40
1.0
176
     1
 90
        0
176
     1
 62
    18
420
        0
176
     1
 90
       50
176
     1
 90
        3
176
     1
 62
     5
420
      255
176
     1
290
     0
176
     1
 90
       50
176
     1
 90
       50
176
     1
 90
       50
176
     1
290
     0
176
     1
 90
       50
176
     1
 62
   256
176
     0
 40
1.0
176
     0
 90
        2
176
     1
  1
strokes_ogs.tif
176
     1
290
     0
176
     1
 40
1.0
176
     1
 40
1.0
176
     1
  0
VISUALSTYLE
  5
767
102
{ACAD_REACTORS
330
763
102
}
330
763
100
AcDbVisualStyle
  2
GouraudWithEdges
 70
     3
177
     3
291
     1
 70
    58
 90
        2
176
     1
 90
        2
176
     1
 90
        1
176
     1
 90
        2
176
     1
 40
0.6
176
     1
 40
30.0
176
     1
 62
     7
176
     1
 90
        1
176
     1
 90
        0
176
     1
 62
     7
176
     1
 62
   257
176
     1
 90
        1
176
     1
 90
        1
176
     1
 40
1.0
176
     1
 90
        0
176
     1
 62
   257
176
     1
 40
1.0
176
     1
 90
        1
176
     1
 90
        6
176
     1
 90
        2
176
     1
 62
     7
176
     1
 90
        5
176
     1
 90
        0
176
     1
 90
        0
176
     1
290
     0
176
     1
 90
       13
176
     1
 40
0.0
176
     1
 90
        0
176
     1
290
     0
176
     1
290
     1
176
     1
290
     1
176
     1
290
     0
176
     1
290
     0
176
     1
290
     0
176
     1
290
     0
176
     1
290
     0
176
     1
290
     0
176
     1
 90
       50
176
     1
 40
0.0
176
     1
 40
1.0
176
     1
 90
        0
176
     1
 62
    18
420
        0
176
     1
 90
       50
176
     1
 90
        3
176
     1
 62
     5
420
      255
176
     1
290
     0
176
     1
 90
       50
176
     1
 90
       50
176
     1
 90
       50
176
     1
290
     0
176
     1
 90
       50
176
     1
 62
   256
176
     0
 40
1.0
176
     0
 90
        2
176
     1
  1
strokes_ogs.tif
176
     1
290
     0
176
     1
 40
1.0
176
     1
 40
1.0
176
     1
  0
VISUALSTYLE
  5
76A
102
{ACAD_REACTORS
330
763
102
}
330
763
100
AcDbVisualStyle
  2
Hidden
 70
     6
177
     3
291
     0
 70
    58
 90
        1
176
     1
 90
        2
176
     1
 90
        2
176
     1
 90
        0
176
     1
 40
0.6
176
     1
 40
30.0
176
     1
 62
     7
176
     1
 90
        2
176
     1
 90
        2
176
     1
 62
     7
176
     1
 62
   257
176
     1
 90
        2
176
     1
 90
        1
176
     1
 40
40.0
176
     1
 90
        0
176
     1
 62
   257
176
     1
 40
1.0
176
     1
 90
        1
176
     1
 90
        6
176
     1
 90
        2
176
     1
 62
     7
176
     1
 90
        3
176
     1
 90
        0
176
     1
 90
        0
176
     1
290
     0
176
     1
 90
        1
176
     1
 40
0.0
176
     1
 90
        0
176
     1
290
     0
176
     1
290
     1
176
     1
290
     1
176
     1
290
     0
176
     1
290
     0
176
     1
290
     0
176
     1
290
     0
176
     1
290
     0
176
     1
290
     0
176
     1
 90
       50
176
     1
 40
0.0
176
     1
 40
1.0
176
     1
 90
        0
176
     1
 62
    18
420
        0
176
     1
 90
       50
176
     1
 90
        3
176
     1
 62
     5
420
      255
176
     1
290
     0
176
     1
 90
       50
176
     1
 90
       50
176
     1
 90
       50
176
     1
290
     0
176
     1
 90
       50
176
     1
 62
   256
176
     0
 40
1.0
176
     0
 90
        2
176
     1
  1
strokes_ogs.tif
176
     1
290
     0
176
     1
 40
1.0
176
     1
 40
1.0
176
     1
  0
VISUALSTYLE
  5
774
102
{ACAD_REACTORS
330
763
102
}
330
763
100
AcDbVisualStyle
  2
JitterOff
 70
    20
177
     3
291
     1
 70
    58
 90
        2
176
     1
 90
        2
176
     1
 90
        0
176
     1
 90
        0
176
     1
 40
0.6
176
     1
 40
30.0
176
     1
 62
     7
176
     1
 90
        1
176
     1
 90
        4
176
     1
 62
     7
176
     1
 62
   257
176
     1
 90
        1
176
     1
 90
        1
176
     1
 40
1.0
176
     1
 90
       10
176
     1
 62
     7
176
     1
 40
1.0
176
     1
 90
        1
176
     1
 90
        6
176
     1
 90
        2
176
     1
 62
     7
176
     1
 90
        5
176
     1
 90
        0
176
     1
 90
        0
176
     1
290
     0
176
     1
 90
        1
176
     1
 40
0.0
176
     1
 90
        0
176
     1
290
     0
176
     1
290
     1
176
     1
290
     1
176
     1
290
     0
176
     1
290
     0
176
     1
290
     0
176
     1
290
     0
176
     1
290
     0
176
     1
290
     0
176
     1
 90
       50
176
     1
 40
0.0
176
     1
 40
1.0
176
     1
 90
        0
176
     1
 62
    18
420
        0
176
     1
 90
       50
176
     1
 90
        3
176
     1
 62
     5
420
      255
176
     1
290
     0
176
     1
 90
       50
176
     1
 90
       50
176
     1
 90
       50
176
     1
290
     0
176
     1
 90
       50
176
     1
 62
   256
176
     0
 40
1.0
176
     0
 90
        2
176
     1
  1
strokes_ogs.tif
176
     1
290
     0
176
     1
 40
1.0
176
     1
 40
1.0
176
     1
  0
VISUALSTYLE
  5
771
102
{ACAD_REACTORS
330
763
102
}
330
763
100
AcDbVisualStyle
  2
Linepattern
 70
    14
177
     3
291
     1
 70
    58
 90
        2
176
     1
 90
        2
176
     1
 90
        0
176
     1
 90
        0
176
     1
 40
0.6
176
     1
 40
30.0
176
     1
 62
     7
176
     1
 90
        1
176
     1
 90
        4
176
     1
 62
     7
176
     1
 62
   257
176
     1
 90
        7
176
     1
 90
        7
176
     1
 40
1.0
176
     1
 90
        8
176
     1
 62
     7
176
     1
 40
1.0
176
     1
 90
        1
176
     1
 90
        6
176
     1
 90
        2
176
     1
 62
     7
176
     1
 90
        5
176
     1
 90
        0
176
     1
 90
        0
176
     1
290
     0
176
     1
 90
        1
176
     1
 40
0.0
176
     1
 90
        0
176
     1
290
     0
176
     1
290
     1
176
     1
290
     1
176
     1
290
     0
176
     1
290
     0
176
     1
290
     0
176
     1
290
     0
176
     1
290
     0
176
     1
290
     0
176
     1
 90
       50
176
     1
 40
0.0
176
     1
 40
1.0
176
     1
 90
        0
176
     1
 62
    18
420
        0
176
     1
 90
       50
176
     1
 90
        3
176
     1
 62
     5
420
      255
176
     1
290
     0
176
     1
 90
       50
176
     1
 90
       50
176
     1
 90
       50
176
     1
290
     0
176
     1
 90
       50
176
     1
 62
   256
176
     0
 40
1.0
176
     0
 90
        2
176
     1
  1
strokes_ogs.tif
176
     1
290
     0
176
     1
 40
1.0
176
     1
 40
1.0
176
     1
  0
VISUALSTYLE
  5
784
102
{ACAD_REACTORS
330
763
102
}
330
763
100
AcDbVisualStyle
  2

 70
    10
177
     3
291
     0
 70
    58
 90
        2
176
     1
 90
        3
176
     1
 90
        0
176
     1
 90
        2
176
     1
 40
0.6
176
     1
 40
30.0
176
     1
 62
     7
176
     1
 90
        2
176
     1
 90
        0
176
     1
 62
     7
176
     1
 62
   257
176
     1
 90
        1
176
     1
 90
        1
176
     1
 40
180.0
176
     1
 90
        8
176
     1
 62
     8
176
     1
 40
1.0
176
     1
 90
        1
176
     1
 90
        6
176
     1
 90
        2
176
     1
 62
     7
176
     1
 90
        5
176
     1
 90
        0
176
     1
 90
        0
176
     1
290
     0
176
     1
 90
       13
176
     1
 40
0.0
176
     1
 90
        0
176
     1
290
     0
176
     1
290
     1
176
     1
290
     1
176
     1
290
     0
176
     1
290
     0
176
     1
290
     0
176
     1
290
     0
176
     1
290
     0
176
     1
290
     0
176
     1
 90
       50
176
     1
 40
0.0
176
     1
 40
1.0
176
     1
 90
        0
176
     1
 62
    18
420
        0
176
     1
 90
       50
176
     1
 90
        3
176
     1
 62
     5
420
      255
176
     1
290
     0
176
     1
 90
       50
176
     1
 90
       50
176
     1
 90
       50
176
     1
290
     0
176
     1
 90
       50
176
     1
 62
   256
176
     0
 40
1.0
176
     0
 90
        2
176
     1
  1
strokes_ogs.tif
176
     1
290
     0
176
     1
 40
1.0
176
     1
 40
1.0
176
     1
  0
VISUALSTYLE
  5
775
102
{ACAD_REACTORS
330
763
102
}
330
763
100
AcDbVisualStyle
  2
OverhangOff
 70
    21
177
     3
291
     1
 70
    58
 90
        2
176
     1
 90
        2
176
     1
 90
        0
176
     1
 90
        0
176
     1
 40
0.6
176
     1
 40
30.0
176
     1
 62
     7
176
     1
 90
        1
176
     1
 90
        4
176
     1
 62
     7
176
     1
 62
   257
176
     1
 90
        1
176
     1
 90
        1
176
     1
 40
1.0
176
     1
 90
        9
176
     1
 62
     7
176
     1
 40
1.0
176
     1
 90
        1
176
     1
 90
        6
176
     1
 90
        2
176
     1
 62
     7
176
     1
 90
        5
176
     1
 90
        0
176
     1
 90
        0
176
     1
290
     0
176
     1
 90
        1
176
     1
 40
0.0
176
     1
 90
        0
176
     1
290
     0
176
     1
290
     1
176
     1
290
     1
176
     1
290
     0
176
     1
290
     0
176
     1
290
     0
176
     1
290
     0
176
     1
290
     0
176
     1
290
     0
176
     1
 90
       50
176
     1
 40
0.0
176
     1
 40
1.0
176
     1
 90
        0
176
     1
 62
    18
420
        0
176
     1
 90
       50
176
     1
 90
        3
176
     1
 62
     5
420
      255
176
     1
290
     0
176
     1
 90
       50
176
     1
 90
       50
176
     1
 90
       50
176
     1
290
     0
176
     1
 90
       50
176
     1
 62
   256
176
     0
 40
1.0
176
     0
 90
        2
176
     1
  1
strokes_ogs.tif
176
     1
290
     0
176
     1
 40
1.0
176
     1
 40
1.0
176
     1
  0
VISUALSTYLE
  5
76C
102
{ACAD_REACTORS
330
763
102
}
330
763
100
AcDbVisualStyle
  2
Realistic
 70
     8
177
     3
291
     0
 70
    58
 90
        2
176
     1
 90
        3
176
     1
 90
        0
176
     1
 90
        2
176
     1
 40
0.6
176
     1
 40
30.0
176
     1
 62
     7
176
     1
 90
        0
176
     1
 90
        0
176
     1
 62
     7
176
     1
 62
   257
176
     1
 90
        1
176
     1
 90
        1
176
     1
 40
1.0
176
     1
 90
        8
176
     1
 62
   257
176
     1
 40
1.0
176
     1
 90
        1
176
     1
 90
        6
176
     1
 90
        2
176
     1
 62
     7
176
     1
 90
        3
176
     1
 90
        0
176
     1
 90
        0
176
     1
290
     0
176
     1
 90
       13
176
     1
 40
0.0
176
     1
 90
        0
176
     1
290
     0
176
     1
290
     1
176
     1
290
     1
176
     1
290
     0
176
     1
290
     0
176
     1
290
     0
176
     1
290
     0
176
     1
290
     0
176
     1
290
     0
176
     1
 90
       50
176
     1
 40
0.0
176
     1
 40
1.0
176
     1
 90
        0
176
     1
 62
    18
420
        0
176
     1
 90
       50
176
     1
 90
        3
176
     1
 62
     5
420
      255
176
     1
290
     0
176
     1
 90
       50
176
     1
 90
       50
176
     1
 90
       50
176
     1
290
     0
176
     1
 90
       50
176
     1
 62
   256
176
     0
 40
1.0
176
     0
 90
        2
176
     1
  1
strokes_ogs.tif
176
     1
290
     0
176
     1
 40
1.0
176
     1
 40
1.0
176
     1
  0
VISUALSTYLE
  5
77B
102
{ACAD_REACTORS
330
763
102
}
330
763
100
AcDbVisualStyle
  2
Shaded
 70
    27
177
     3
291
     0
 70
    58
 90
        2
176
     1
 90
        2
176
     1
 90
        1
176
     1
 90
        2
176
     1
 40
0.6
176
     1
 40
30.0
176
     1
 62
     7
176
     1
 90
        0
176
     1
 90
        4
176
     1
 62
     7
176
     1
 62
   257
176
     1
 90
        1
176
     1
 90
        1
176
     1
 40
1.0
176
     1
 90
        8
176
     1
 62
   257
176
     1
 40
1.0
176
     1
 90
        1
176
     1
 90
        6
176
     1
 90
        2
176
     1
 62
     8
176
     1
 90
        3
176
     1
 90
        0
176
     1
 90
        0
176
     1
290
     0
176
     1
 90
        5
176
     1
 40
0.0
176
     1
 90
        0
176
     1
290
     0
176
     1
290
     1
176
     1
290
     1
176
     1
290
     0
176
     1
290
     0
176
     1
290
     0
176
     1
290
     0
176
     1
290
     0
176
     1
290
     0
176
     1
 90
       50
176
     1
 40
0.0
176
     1
 40
1.0
176
     1
 90
        0
176
     1
 62
    18
420
        0
176
     1
 90
       50
176
     1
 90
        3
176
     1
 62
     5
420
      255
176
     1
290
     0
176
     1
 90
       50
176
     1
 90
       50
176
     1
 90
       50
176
     1
290
     0
176
     1
 90
       50
176
     1
 62
   256
176
     0
 40
1.0
176
     0
 90
        2
176
     1
  1
strokes_ogs.tif
176
     1
290
     0
176
     1
 40
1.0
176
     1
 40
1.0
176
     1
  0
VISUALSTYLE
  5
77A
102
{ACAD_REACTORS
330
763
102
}
330
763
100
AcDbVisualStyle
  2
Shaded with edges
 70
    26
177
     3
291
     0
 70
    58
 90
        2
176
     1
 90
        2
176
     1
 90
        1
176
     1
 90
        2
176
     1
 40
0.6
176
     1
 40
30.0
176
     1
 62
     7
176
     1
 90
        1
176
     1
 90
       10
176
     1
 62
     7
176
     1
 62
   257
176
     1
 90
        2
176
     1
 90
        1
176
     1
 40
1.0
176
     1
 90
        8
176
     1
 62
   257
176
     1
 40
1.0
176
     1
 90
        1
176
     1
 90
        6
176
     1
 90
        2
176
     1
 62
     7
176
     1
 90
        3
176
     1
 90
        0
176
     1
 90
        0
176
     1
290
     0
176
     1
 90
        5
176
     1
 40
0.0
176
     1
 90
        0
176
     1
290
     0
176
     1
290
     1
176
     1
290
     1
176
     1
290
     0
176
     1
290
     0
176
     1
290
     0
176
     1
290
     0
176
     1
290
     0
176
     1
290
     0
176
     1
 90
       50
176
     1
 40
0.0
176
     1
 40
1.0
176
     1
 90
        0
176
     1
 62
    18
420
        0
176
     1
 90
       50
176
     1
 90
        3
176
     1
 62
     5
420
      255
176
     1
290
     0
176
     1
 90
       50
176
     1
 90
       50
176
     1
 90
       50
176
     1
290
     0
176
     1
 90
       50
176
     1
 62
   256
176
     0
 40
1.0
176
     0
 90
        2
176
     1
  1
strokes_ogs.tif
176
     1
290
     0
176
     1
 40
1.0
176
     1
 40
1.0
176
     1
  0
VISUALSTYLE
  5
777
102
{ACAD_REACTORS
330
763
102
}
330
763
100
AcDbVisualStyle
  2
Shades of Gray
 70
    23
177
     3
291
     0
 70
    58
 90
        2
176
     1
 90
        2
176
     1
 90
        3
176
     1
 90
        0
176
     1
 40
0.6
176
     1
 40
30.0
176
     1
 62
     7
176
     1
 90
        2
176
     1
 90
        2
176
     1
 62
     7
176
     1
 62
     7
176
     1
 90
        1
176
     1
 90
        1
176
     1
 40
40.0
176
     1
 90
        8
176
     1
 62
     7
176
     1
 40
1.0
176
     1
 90
        1
176
     1
 90
        6
176
     1
 90
        2
176
     1
 62
     7
176
     1
 90
        3
176
     1
 90
        0
176
     1
 90
        0
176
     1
290
     0
176
     1
 90
        1
176
     1
 40
0.0
176
     1
 90
        0
176
     1
290
     0
176
     1
290
     1
176
     1
290
     1
176
     1
290
     0
176
     1
290
     0
176
     1
290
     0
176
     1
290
     0
176
     1
290
     0
176
     1
290
     0
176
     1
 90
       50
176
     1
 40
0.0
176
     1
 40
1.0
176
     1
 90
        0
176
     1
 62
    18
420
        0
176
     1
 90
       50
176
     1
 90
        3
176
     1
 62
     5
420
      255
176
     1
290
     0
176
     1
 90
       50
176
     1
 90
       50
176
     1
 90
       50
176
     1
290
     0
176
     1
 90
       50
176
     1
 62
   256
176
     0
 40
1.0
176
     0
 90
        2
176
     1
  1
strokes_ogs.tif
176
     1
290
     0
176
     1
 40
1.0
176
     1
 40
1.0
176
     1
  0
VISUALSTYLE
  5
778
102
{ACAD_REACTORS
330
763
102
}
330
763
100
AcDbVisualStyle
  2
Sketchy
 70
    24
177
     3
291
     0
 70
    58
 90
        1
176
     1
 90
        2
176
     1
 90
        2
176
     1
 90
        0
176
     1
 40
0.6
176
     1
 40
30.0
176
     1
 62
     7
176
     1
 90
        2
176
     1
 90
        2
176
     1
 62
     7
176
     1
 62
     7
176
     1
 90
        1
176
     1
 90
        1
176
     1
 40
40.0
176
     1
 90
       11
176
     1
 62
     7
176
     1
 40
1.0
176
     1
 90
        1
176
     1
 90
        6
176
     1
 90
        2
176
     1
 62
     7
176
     1
 90
        6
176
     1
 90
        0
176
     1
 90
        0
176
     1
290
     0
176
     1
 90
        1
176
     1
 40
0.0
176
     1
 90
        0
176
     1
290
     0
176
     1
290
     1
176
     1
290
     1
176
     1
290
     0
176
     1
290
     0
176
     1
290
     0
176
     1
290
     0
176
     1
290
     0
176
     1
290
     0
176
     1
 90
       50
176
     1
 40
0.0
176
     1
 40
1.0
176
     1
 90
        0
176
     1
 62
    18
420
        0
176
     1
 90
       50
176
     1
 90
        3
176
     1
 62
     5
420
      255
176
     1
290
     0
176
     1
 90
       50
176
     1
 90
       50
176
     1
 90
       50
176
     1
290
     0
176
     1
 90
       50
176
     1
 62
   256
176
     0
 40
1.0
176
     0
 90
        2
176
     1
  1
strokes_ogs.tif
176
     1
290
     0
176
     1
 40
1.0
176
     1
 40
1.0
176
     1
  0
VISUALSTYLE
  5
770
102
{ACAD_REACTORS
330
763
102
}
330
763
100
AcDbVisualStyle
  2
Thicken
 70
    13
177
     3
291
     1
 70
    58
 90
        2
176
     1
 90
        2
176
     1
 90
        0
176
     1
 90
        0
176
     1
 40
0.6
176
     1
 40
30.0
176
     1
 62
     7
176
     1
 90
        1
176
     1
 90
        4
176
     1
 62
     7
176
     1
 62
   257
176
     1
 90
        1
176
     1
 90
        1
176
     1
 40
1.0
176
     1
 90
       12
176
     1
 62
     7
176
     1
 40
1.0
176
     1
 90
        1
176
     1
 90
        6
176
     1
 90
        2
176
     1
 62
     7
176
     1
 90
        5
176
     1
 90
        0
176
     1
 90
        0
176
     1
290
     0
176
     1
 90
        1
176
     1
 40
0.0
176
     1
 90
        0
176
     1
290
     0
176
     1
290
     1
176
     1
290
     1
176
     1
290
     0
176
     1
290
     0
176
     1
290
     0
176
     1
290
     0
176
     1
290
     0
176
     1
290
     0
176
     1
 90
       50
176
     1
 40
0.0
176
     1
 40
1.0
176
     1
 90
        0
176
     1
 62
    18
420
        0
176
     1
 90
       50
176
     1
 90
        3
176
     1
 62
     5
420
      255
176
     1
290
     0
176
     1
 90
       50
176
     1
 90
       50
176
     1
 90
       50
176
     1
290
     0
176
     1
 90
       50
176
     1
 62
   256
176
     0
 40
1.0
176
     0
 90
        2
176
     1
  1
strokes_ogs.tif
176
     1
290
     0
176
     1
 40
1.0
176
     1
 40
1.0
176
     1
  0
VISUALSTYLE
  5
769
102
{ACAD_REACTORS
330
763
102
}
330
763
100
AcDbVisualStyle
  2
Wireframe
 70
     5
177
     3
291
     0
 70
    58
 90
        0
176
     1
 90
        2
176
     1
 90
        0
176
     1
 90
        0
176
     1
 40
0.6
176
     1
 40
30.0
176
     1
 62
     7
176
     1
 90
        1
176
     1
 90
        4
176
     1
 62
     7
176
     1
 62
   257
176
     1
 90
        1
176
     1
 90
        1
176
     1
 40
1.0
176
     1
 90
        0
176
     1
 62
   257
176
     1
 40
1.0
176
     1
 90
        1
176
     1
 90
        6
176
     1
 90
        2
176
     1
 62
     7
176
     1
 90
        3
176
     1
 90
        0
176
     1
 90
        0
176
     1
290
     0
176
     1
 90
        1
176
     1
 40
0.0
176
     1
 90
        0
176
     1
290
     0
176
     1
290
     1
176
     1
290
     1
176
     1
290
     0
176
     1
290
     0
176
     1
290
     0
176
     1
290
     0
176
     1
290
     0
176
     1
290
     0
176
     1
 90
       50
176
     1
 40
0.0
176
     1
 40
1.0
176
     1
 90
        0
176
     1
 62
    18
420
        0
176
     1
 90
       50
176
     1
 90
        3
176
     1
 62
     5
420
      255
176
     1
290
     0
176
     1
 90
       50
176
     1
 90
       50
176
     1
 90
       50
176
     1
290
     0
176
     1
 90
       50
176
     1
 62
   256
176
     0
 40
1.0
176
     0
 90
        2
176
     1
  1
strokes_ogs.tif
176
     1
290
     0
176
     1
 40
1.0
176
     1
 40
1.0
176
     1
  0
VISUALSTYLE
  5
779
102
{ACAD_REACTORS
330
763
102
}
330
763
100
AcDbVisualStyle
  2
X-Ray
 70
    25
177
     3
291
     0
 70
    58
 90
        2
176
     1
 90
        2
176
     1
 90
        1
176
     1
 90
        1
176
     1
 40
0.5
176
     1
 40
30.0
176
     1
 62
     7
176
     1
 90
        1
176
     1
 90
        0
176
     1
 62
     7
176
     1
 62
   257
176
     1
 90
        1
176
     1
 90
        1
176
     1
 40
1.0
176
     1
 90
        8
176
     1
 62
     7
176
     1
 40
1.0
176
     1
 90
        1
176
     1
 90
        6
176
     1
 90
        2
176
     1
 62
     7
176
     1
 90
        3
176
     1
 90
        0
176
     1
 90
        0
176
     1
290
     0
176
     1
 90
       13
176
     1
 40
0.0
176
     1
 90
        0
176
     1
290
     0
176
     1
290
     1
176
     1
290
     1
176
     1
290
     0
176
     1
290
     0
176
     1
290
     0
176
     1
290
     0
176
     1
290
     0
176
     1
290
     0
176
     1
 90
       50
176
     1
 40
0.0
176
     1
 40
1.0
176
     1
 90
        0
176
     1
 62
    18
420
        0
176
     1
 90
       50
176
     1
 90
        3
176
     1
 62
     5
420
      255
176
     1
290
     0
176
     1
 90
       50
176
     1
 90
       50
176
     1
 90
       50
176
     1
290
     0
176
     1
 90
       50
176
     1
 62
   256
176
     0
 40
1.0
176
     0
 90
        2
176
     1
  1
strokes_ogs.tif
176
     1
290
     0
176
     1
 40
1.0
176
     1
 40
1.0
176
     1
  0
DICTIONARYVAR
  5
109A
102
{ACAD_REACTORS
330
AA8
102
}
330
AA8
100
DictionaryVariables
280
     0
  1
1:1
  0
DICTIONARYVAR
  5
AAB
102
{ACAD_REACTORS
330
AA8
102
}
330
AA8
100
DictionaryVariables
280
     0
  1
Standard
  0
DICTIONARYVAR
  5
AAA
102
{ACAD_REACTORS
330
AA8
102
}
330
AA8
100
DictionaryVariables
280
     0
  1
Standard
  0
DICTIONARYVAR
  5
C13
102
{ACAD_REACTORS
330
AA8
102
}
330
AA8
100
DictionaryVariables
280
     0
  1
2
  0
DICTIONARYVAR
  5
C14
102
{ACAD_REACTORS
330
AA8
102
}
330
AA8
100
DictionaryVariables
280
     0
  1
1
  0
DICTIONARYVAR
  5
AAC
102
{ACAD_REACTORS
330
AA8
102
}
330
AA8
100
DictionaryVariables
280
     0
  1
0
  0
DICTIONARY
  5
9E7
102
{ACAD_REACTORS
330
9E6
102
}
330
9E6
100
AcDbDictionary
281
     1
  0
DICTIONARY
  5
9EB
102
{ACAD_REACTORS
330
9EA
102
}
330
9EA
100
AcDbDictionary
281
     1
  0
DICTIONARY
  5
EC9
102
{ACAD_REACTORS
330
EC8
102
}
330
EC8
100
AcDbDictionary
281
     1
  0
DICTIONARY
  5
ECD
102
{ACAD_REACTORS
330
ECC
102
}
330
ECC
100
AcDbDictionary
281
     1
  0
DICTIONARY
  5
ED1
102
{ACAD_REACTORS
330
ED0
102
}
330
ED0
100
AcDbDictionary
281
     1
  0
DICTIONARY
  5
109B
330
781
100
AcDbDictionary
280
     1
281
     1
  3
ACAD_ROUNDTRIP_2008_TABLESTYLE_CELLSTYLEMAP
360
109C
  0
CELLSTYLEMAP
  5
109C
102
{ACAD_REACTORS
330
109B
102
}
330
109B
100
AcDbCellStyleMap
 90
        3
300
CELLSTYLE
  1
TABLEFORMAT_BEGIN
 90
        5
170
     1
 91
        0
 92
    32768
 62
   257
 93
        1
300
CONTENTFORMAT
  1
CONTENTFORMAT_BEGIN
 90
        0
 91
        0
 92
        4
 93
        0
300

 40
0.0
140
1.0
 94
        5
 62
     0
340
11
144
0.25
309
CONTENTFORMAT_END
171
     1
301
MARGIN
  1
CELLMARGIN_BEGIN
 40
0.06
 40
0.06
 40
0.06
 40
0.06
 40
0.06
 40
0.06
309
CELLMARGIN_END
 94
        6
 95
        1
302
GRIDFORMAT
  1
GRIDFORMAT_BEGIN
 90
        0
 91
        1
 62
     0
 92
       -2
340
14
 93
        0
 40
0.045
309
GRIDFORMAT_END
 95
        2
302
GRIDFORMAT
  1
GRIDFORMAT_BEGIN
 90
        0
 91
        1
 62
     0
 92
       -2
340
14
 93
        0
 40
0.045
309
GRIDFORMAT_END
 95
        4
302
GRIDFORMAT
  1
GRIDFORMAT_BEGIN
 90
        0
 91
        1
 62
     0
 92
       -2
340
14
 93
        0
 40
0.045
309
GRIDFORMAT_END
 95
        8
302
GRIDFORMAT
  1
GRIDFORMAT_BEGIN
 90
        0
 91
        1
 62
     0
 92
       -2
340
14
 93
        0
 40
0.045
309
GRIDFORMAT_END
 95
       16
302
GRIDFORMAT
  1
GRIDFORMAT_BEGIN
 90
        0
 91
        1
 62
     0
 92
       -2
340
14
 93
        0
 40
0.045
309
GRIDFORMAT_END
 95
       32
302
GRIDFORMAT
  1
GRIDFORMAT_BEGIN
 90
        0
 91
        1
 62
     0
 92
       -2
340
14
 93
        0
 40
0.045
309
GRIDFORMAT_END
309
TABLEFORMAT_END
  1
CELLSTYLE_BEGIN
 90
        1
 91
        1
300
_TITLE
309
CELLSTYLE_END
300
CELLSTYLE
  1
TABLEFORMAT_BEGIN
 90
        5
170
     1
 91
        0
 92
        0
 62
   257
 93
        1
300
CONTENTFORMAT
  1
CONTENTFORMAT_BEGIN
 90
        0
 91
        0
 92
        4
 93
        0
300

 40
0.0
140
1.0
 94
        5
 62
     0
340
11
144
0.18
309
CONTENTFORMAT_END
171
     1
301
MARGIN
  1
CELLMARGIN_BEGIN
 40
0.06
 40
0.06
 40
0.06
 40
0.06
 40
0.06
 40
0.06
309
CELLMARGIN_END
 94
        6
 95
        1
302
GRIDFORMAT
  1
GRIDFORMAT_BEGIN
 90
        0
 91
        1
 62
     0
 92
       -2
340
14
 93
        0
 40
0.045
309
GRIDFORMAT_END
 95
        2
302
GRIDFORMAT
  1
GRIDFORMAT_BEGIN
 90
        0
 91
        1
 62
     0
 92
       -2
340
14
 93
        0
 40
0.045
309
GRIDFORMAT_END
 95
        4
302
GRIDFORMAT
  1
GRIDFORMAT_BEGIN
 90
        0
 91
        1
 62
     0
 92
       -2
340
14
 93
        0
 40
0.045
309
GRIDFORMAT_END
 95
        8
302
GRIDFORMAT
  1
GRIDFORMAT_BEGIN
 90
        0
 91
        1
 62
     0
 92
       -2
340
14
 93
        0
 40
0.045
309
GRIDFORMAT_END
 95
       16
302
GRIDFORMAT
  1
GRIDFORMAT_BEGIN
 90
        0
 91
        1
 62
     0
 92
       -2
340
14
 93
        0
 40
0.045
309
GRIDFORMAT_END
 95
       32
302
GRIDFORMAT
  1
GRIDFORMAT_BEGIN
 90
        0
 91
        1
 62
     0
 92
       -2
340
14
 93
        0
 40
0.045
309
GRIDFORMAT_END
309
TABLEFORMAT_END
  1
CELLSTYLE_BEGIN
 90
        2
 91
        1
300
_HEADER
309
CELLSTYLE_END
300
CELLSTYLE
  1
TABLEFORMAT_BEGIN
 90
        5
170
     1
 91
        0
 92
        0
 62
   257
 93
        1
300
CONTENTFORMAT
  1
CONTENTFORMAT_BEGIN
 90
        0
 91
        0
 92
        4
 93
        0
300

 40
0.0
140
1.0
 94
        2
 62
     0
340
11
144
0.18
309
CONTENTFORMAT_END
171
     1
301
MARGIN
  1
CELLMARGIN_BEGIN
 40
0.06
 40
0.06
 40
0.06
 40
0.06
 40
0.06
 40
0.06
309
CELLMARGIN_END
 94
        6
 95
        1
302
GRIDFORMAT
  1
GRIDFORMAT_BEGIN
 90
        0
 91
        1
 62
     0
 92
       -2
340
14
 93
        0
 40
0.045
309
GRIDFORMAT_END
 95
        2
302
GRIDFORMAT
  1
GRIDFORMAT_BEGIN
 90
        0
 91
        1
 62
     0
 92
       -2
340
14
 93
        0
 40
0.045
309
GRIDFORMAT_END
 95
        4
302
GRIDFORMAT
  1
GRIDFORMAT_BEGIN
 90
        0
 91
        1
 62
     0
 92
       -2
340
14
 93
        0
 40
0.045
309
GRIDFORMAT_END
 95
        8
302
GRIDFORMAT
  1
GRIDFORMAT_BEGIN
 90
        0
 91
        1
 62
     0
 92
       -2
340
14
 93
        0
 40
0.045
309
GRIDFORMAT_END
 95
       16
302
GRIDFORMAT
  1
GRIDFORMAT_BEGIN
 90
        0
 91
        1
 62
     0
 92
       -2
340
14
 93
        0
 40
0.045
309
GRIDFORMAT_END
 95
       32
302
GRIDFORMAT
  1
GRIDFORMAT_BEGIN
 90
        0
 91
        1
 62
     0
 92
       -2
340
14
 93
        0
 40
0.045
309
GRIDFORMAT_END
309
TABLEFORMAT_END
  1
CELLSTYLE_BEGIN
 90
        3
 91
        2
300
_DATA
309
CELLSTYLE_END
  0
ENDSEC
  0
EOF
