  0
SECTION
  2
HEADER
  9
$ACADVER
  1
AC1015
  9
$ACADMAINTVER
 70
     6
  9
$DWGCODEPAGE
  3
ANSI_932
  9
$INSBASE
 10
0.0
 20
0.0
 30
0.0
  9
$EXTMIN
 10
81.658839636993
 20
46.582883
 30
0.0
  9
$EXTMAX
 10
309.141568196659
 20
280.310976128877
 30
0.0
  9
$LIMMIN
 10
0.0
 20
0.0
  9
$LIMMAX
 10
408.0
 20
284.0
  9
$ORTHOMODE
 70
     0
  9
$REGENMODE
 70
     1
  9
$FILLMODE
 70
     1
  9
$QTEXTMODE
 70
     0
  9
$MIRRTEXT
 70
     1
  9
$LTSCALE
 40
15.0
  9
$ATTMODE
 70
     1
  9
$TEXTSIZE
 40
8.0
  9
$TRACEWID
 40
0.05
  9
$TEXTSTYLE
  7
Standard
  9
$CLAYER
  8
CSLAYER1
  9
$CELTYPE
  6
ByLayer
  9
$CECOLOR
 62
   256
  9
$CELTSCALE
 40
1.0
  9
$DISPSILH
 70
     0
  9
$DIMSCALE
 40
1.0
  9
$DIMASZ
 40
0.18
  9
$DIMEXO
 40
0.0625
  9
$DIMDLI
 40
0.38
  9
$DIMRND
 40
0.0
  9
$DIMDLE
 40
0.0
  9
$DIMEXE
 40
0.18
  9
$DIMTP
 40
0.0
  9
$DIMTM
 40
0.0
  9
$DIMTXT
 40
0.18
  9
$DIMCEN
 40
0.09
  9
$DIMTSZ
 40
0.0
  9
$DIMTOL
 70
     0
  9
$DIMLIM
 70
     0
  9
$DIMTIH
 70
     1
  9
$DIMTOH
 70
     1
  9
$DIMSE1
 70
     0
  9
$DIMSE2
 70
     0
  9
$DIMTAD
 70
     0
  9
$DIMZIN
 70
     0
  9
$DIMBLK
  1

  9
$DIMASO
 70
     1
  9
$DIMSHO
 70
     1
  9
$DIMPOST
  1

  9
$DIMAPOST
  1

  9
$DIMALT
 70
     0
  9
$DIMALTD
 70
     2
  9
$DIMALTF
 40
25.4
  9
$DIMLFAC
 40
1.0
  9
$DIMTOFL
 70
     0
  9
$DIMTVP
 40
0.0
  9
$DIMTIX
 70
     0
  9
$DIMSOXD
 70
     0
  9
$DIMSAH
 70
     0
  9
$DIMBLK1
  1

  9
$DIMBLK2
  1

  9
$DIMSTYLE
  2
Standard
  9
$DIMCLRD
 70
     0
  9
$DIMCLRE
 70
     0
  9
$DIMCLRT
 70
     0
  9
$DIMTFAC
 40
1.0
  9
$DIMGAP
 40
0.09
  9
$DIMJUST
 70
     0
  9
$DIMSD1
 70
     0
  9
$DIMSD2
 70
     0
  9
$DIMTOLJ
 70
     1
  9
$DIMTZIN
 70
     0
  9
$DIMALTZ
 70
     0
  9
$DIMALTTZ
 70
     0
  9
$DIMUPT
 70
     0
  9
$DIMDEC
 70
     4
  9
$DIMTDEC
 70
     4
  9
$DIMALTU
 70
     2
  9
$DIMALTTD
 70
     2
  9
$DIMTXSTY
  7
Standard
  9
$DIMAUNIT
 70
     0
  9
$DIMADEC
 70
     0
  9
$DIMALTRND
 40
0.0
  9
$DIMAZIN
 70
     0
  9
$DIMDSEP
 70
    46
  9
$DIMATFIT
 70
     3
  9
$DIMFRAC
 70
     0
  9
$DIMLDRBLK
  1

  9
$DIMLUNIT
 70
     2
  9
$DIMLWD
 70
    -2
  9
$DIMLWE
 70
    -2
  9
$DIMTMOVE
 70
     2
  9
$LUNITS
 70
     2
  9
$LUPREC
 70
     4
  9
$SKETCHINC
 40
0.1
  9
$FILLETRAD
 40
0.0
  9
$AUNITS
 70
     0
  9
$AUPREC
 70
     0
  9
$MENU
  1
ACAD
  9
$ELEVATION
 40
0.0
  9
$PELEVATION
 40
0.0
  9
$THICKNESS
 40
0.0
  9
$LIMCHECK
 70
     0
  9
$CHAMFERA
 40
0.0
  9
$CHAMFERB
 40
0.0
  9
$CHAMFERC
 40
0.0
  9
$CHAMFERD
 40
0.0
  9
$SKPOLY
 70
     0
  9
$TDCREATE
 40
2457847.0
  9
$TDUCREATE
 40
2457846.625
  9
$TDUPDATE
 40
2458085.641004224
  9
$TDUUPDATE
 40
2458085.266004224
  9
$TDINDWG
 40
0.048858912
  9
$TDUSRTIMER
 40
0.048858912
  9
$USRTIMER
 70
     1
  9
$ANGBASE
 50
0.0
  9
$ANGDIR
 70
     0
  9
$PDMODE
 70
     0
  9
$PDSIZE
 40
0.0
  9
$PLINEWID
 40
0.0
  9
$SPLFRAME
 70
     0
  9
$SPLINETYPE
 70
     6
  9
$SPLINESEGS
 70
     8
  9
$HANDSEED
  5
73C
  9
$SURFTAB1
 70
     6
  9
$SURFTAB2
 70
     6
  9
$SURFTYPE
 70
     6
  9
$SURFU
 70
     6
  9
$SURFV
 70
     6
  9
$UCSBASE
  2

  9
$UCSNAME
  2

  9
$UCSORG
 10
0.0
 20
0.0
 30
0.0
  9
$UCSXDIR
 10
1.0
 20
0.0
 30
0.0
  9
$UCSYDIR
 10
0.0
 20
1.0
 30
0.0
  9
$UCSORTHOREF
  2

  9
$UCSORTHOVIEW
 70
     0
  9
$UCSORGTOP
 10
0.0
 20
0.0
 30
0.0
  9
$UCSORGBOTTOM
 10
0.0
 20
0.0
 30
0.0
  9
$UCSORGLEFT
 10
0.0
 20
0.0
 30
0.0
  9
$UCSORGRIGHT
 10
0.0
 20
0.0
 30
0.0
  9
$UCSORGFRONT
 10
0.0
 20
0.0
 30
0.0
  9
$UCSORGBACK
 10
0.0
 20
0.0
 30
0.0
  9
$PUCSBASE
  2

  9
$PUCSNAME
  2

  9
$PUCSORG
 10
0.0
 20
0.0
 30
0.0
  9
$PUCSXDIR
 10
1.0
 20
0.0
 30
0.0
  9
$PUCSYDIR
 10
0.0
 20
1.0
 30
0.0
  9
$PUCSORTHOREF
  2

  9
$PUCSORTHOVIEW
 70
     0
  9
$PUCSORGTOP
 10
0.0
 20
0.0
 30
0.0
  9
$PUCSORGBOTTOM
 10
0.0
 20
0.0
 30
0.0
  9
$PUCSORGLEFT
 10
0.0
 20
0.0
 30
0.0
  9
$PUCSORGRIGHT
 10
0.0
 20
0.0
 30
0.0
  9
$PUCSORGFRONT
 10
0.0
 20
0.0
 30
0.0
  9
$PUCSORGBACK
 10
0.0
 20
0.0
 30
0.0
  9
$USERI1
 70
     0
  9
$USERI2
 70
     0
  9
$USERI3
 70
     0
  9
$USERI4
 70
     0
  9
$USERI5
 70
     0
  9
$USERR1
 40
0.0
  9
$USERR2
 40
0.0
  9
$USERR3
 40
0.0
  9
$USERR4
 40
0.0
  9
$USERR5
 40
0.0
  9
$WORLDVIEW
 70
     1
  9
$SHADEDGE
 70
     3
  9
$SHADEDIF
 70
    70
  9
$TILEMODE
 70
     1
  9
$MAXACTVP
 70
    64
  9
$PINSBASE
 10
0.0
 20
0.0
 30
0.0
  9
$PLIMCHECK
 70
     0
  9
$PEXTMIN
 10
1.000000000000E+20
 20
1.000000000000E+20
 30
1.000000000000E+20
  9
$PEXTMAX
 10
-1.000000000000E+20
 20
-1.000000000000E+20
 30
-1.000000000000E+20
  9
$PLIMMIN
 10
0.0
 20
0.0
  9
$PLIMMAX
 10
12.0
 20
9.0
  9
$UNITMODE
 70
     0
  9
$VISRETAIN
 70
     1
  9
$PLINEGEN
 70
     0
  9
$PSLTSCALE
 70
     1
  9
$TREEDEPTH
 70
  3020
  9
$CMLSTYLE
  2
Standard
  9
$CMLJUST
 70
     0
  9
$CMLSCALE
 40
1.0
  9
$PROXYGRAPHICS
 70
     1
  9
$MEASUREMENT
 70
     0
  9
$CELWEIGHT
370
    -1
  9
$ENDCAPS
280
     0
  9
$JOINSTYLE
280
     0
  9
$LWDISPLAY
290
     0
  9
$INSUNITS
 70
     0
  9
$HYPERLINKBASE
  1

  9
$STYLESHEET
  1

  9
$XEDIT
290
     1
  9
$CEPSNTYPE
380
     0
  9
$PSTYLEMODE
290
     1
  9
$FINGERPRINTGUID
  2
{808126AC-CEEC-4159-9E23-1123066A7847}
  9
$VERSIONGUID
  2
{FAEB1C32-E019-11D5-929B-00C0DF256EC4}
  9
$EXTNAMES
290
     1
  9
$PSVPSCALE
 40
0.0
  9
$OLESTARTUP
290
     0
  0
ENDSEC
  0
SECTION
  2
CLASSES
  0
CLASS
  1
ACDBDICTIONARYWDFLT
  2
AcDbDictionaryWithDefault
  3
ObjectDBX Classes
 90
        0
280
     0
281
     0
  0
CLASS
  1
SCALE
  2
AcDbScale
  3
ObjectDBX Classes
 90
     1153
280
     0
281
     0
  0
CLASS
  1
VISUALSTYLE
  2
AcDbVisualStyle
  3
ObjectDBX Classes
 90
     4095
280
     0
281
     0
  0
CLASS
  1
MATERIAL
  2
AcDbMaterial
  3
ObjectDBX Classes
 90
     1153
280
     0
281
     0
  0
CLASS
  1
TABLESTYLE
  2
AcDbTableStyle
  3
ObjectDBX Classes
 90
     4095
280
     0
281
     0
  0
CLASS
  1
MLEADERSTYLE
  2
AcDbMLeaderStyle
  3
ACDB_MLEADERSTYLE_CLASS
 90
     4095
280
     0
281
     0
  0
CLASS
  1
SUN
  2
AcDbSun
  3
SCENEOE
 90
     1153
280
     0
281
     0
  0
CLASS
  1
DICTIONARYVAR
  2
AcDbDictionaryVar
  3
ObjectDBX Classes
 90
        0
280
     0
281
     0
  0
CLASS
  1
CELLSTYLEMAP
  2
AcDbCellStyleMap
  3
ObjectDBX Classes
 90
     1152
280
     0
281
     0
  0
CLASS
  1
XRECORD
  2
AcDbXrecord
  3
ObjectDBX Classes
 90
        0
280
     0
281
     0
  0
CLASS
  1
LWPOLYLINE
  2
AcDbPolyline
  3
ObjectDBX Classes
 90
        0
280
     0
281
     1
  0
CLASS
  1
HATCH
  2
AcDbHatch
  3
ObjectDBX Classes
 90
        0
280
     0
281
     1
  0
CLASS
  1
ACDBPLACEHOLDER
  2
AcDbPlaceHolder
  3
ObjectDBX Classes
 90
        0
280
     0
281
     0
  0
CLASS
  1
LAYOUT
  2
AcDbLayout
  3
ObjectDBX Classes
 90
        0
280
     0
281
     0
  0
CLASS
  1
SORTENTSTABLE
  2
AcDbSortentsTable
  3
ObjectDBX Classes
 90
        0
280
     0
281
     0
  0
ENDSEC
  0
SECTION
  2
TABLES
  0
TABLE
  2
VPORT
  5
8
102
{ACAD_XDICTIONARY
360
700
102
}
330
0
100
AcDbSymbolTable
 70
     1
  0
VPORT
  5
3B
330
8
100
AcDbSymbolTableRecord
100
AcDbViewportTableRecord
  2
*Active
 70
     0
 10
0.0
 20
0.0
 11
1.0
 21
1.0
 12
195.400203916826
 22
163.446929564438
 13
0.0
 23
0.0
 14
0.5
 24
0.5
 15
0.5
 25
0.5
 16
0.0
 26
0.0
 36
1.0
 17
0.0
 27
0.0
 37
0.0
 40
238.402654991454
 41
1.705298013245
 42
50.0
 43
0.0
 44
0.0
 50
0.0
 51
0.0
 71
    16
 72
   100
 73
     1
 74
     3
 75
     0
 76
     0
 77
     0
 78
     0
281
     0
 65
     1
110
0.0
120
0.0
130
0.0
111
1.0
121
0.0
131
0.0
112
0.0
122
1.0
132
0.0
 79
     0
146
0.0
  0
ENDTAB
  0
TABLE
  2
LTYPE
  5
5
330
0
100
AcDbSymbolTable
 70
    10
  0
LTYPE
  5
14
330
5
100
AcDbSymbolTableRecord
100
AcDbLinetypeTableRecord
  2
ByBlock
 70
     0
  3

 72
    65
 73
     0
 40
0.0
  0
LTYPE
  5
15
330
5
100
AcDbSymbolTableRecord
100
AcDbLinetypeTableRecord
  2
ByLayer
 70
     0
  3

 72
    65
 73
     0
 40
0.0
  0
LTYPE
  5
16
330
5
100
AcDbSymbolTableRecord
100
AcDbLinetypeTableRecord
  2
CONTINUOUS
 70
     0
  3
Solid line
 72
    65
 73
     0
 40
0.0
  0
LTYPE
  5
21
330
5
100
AcDbSymbolTableRecord
100
AcDbLinetypeTableRecord
  2
DASHED
 70
     0
  3
__ __ __ __ __ __ __ __ __ __ __ __ __ __ __
 72
    65
 73
     2
 40
0.75
 49
0.5
 74
     0
 49
-0.25
 74
     0
  0
LTYPE
  5
22
330
5
100
AcDbSymbolTableRecord
100
AcDbLinetypeTableRecord
  2
HIDDEN
 70
     0
  3
_ _ _ _ _ _ _ _ _ _ _ _ _ _ _ _ _ _ _ _ _ _ _
 72
    65
 73
     2
 40
0.375
 49
0.25
 74
     0
 49
-0.125
 74
     0
  0
LTYPE
  5
23
330
5
100
AcDbSymbolTableRecord
100
AcDbLinetypeTableRecord
  2
DOT
 70
     0
  3
...............................................
 72
    65
 73
     2
 40
0.25
 49
0.0
 74
     0
 49
-0.25
 74
     0
  0
LTYPE
  5
24
330
5
100
AcDbSymbolTableRecord
100
AcDbLinetypeTableRecord
  2
DASHDOT
 70
     0
  3
__ . __ . __ . __ . __ . __ . __ . __ . __ . __
 72
    65
 73
     4
 40
1.0
 49
0.5
 74
     0
 49
-0.25
 74
     0
 49
0.0
 74
     0
 49
-0.25
 74
     0
  0
LTYPE
  5
25
330
5
100
AcDbSymbolTableRecord
100
AcDbLinetypeTableRecord
  2
DIVIDE
 70
     0
  3
__ . . __ . . __ . . __ . . __ . . __ . . __
 72
    65
 73
     6
 40
1.25
 49
0.5
 74
     0
 49
-0.25
 74
     0
 49
0.0
 74
     0
 49
-0.25
 74
     0
 49
0.0
 74
     0
 49
-0.25
 74
     0
  0
LTYPE
  5
26
330
5
100
AcDbSymbolTableRecord
100
AcDbLinetypeTableRecord
  2
CENTER
 70
     0
  3
____ _ ____ _ ____ _ ____ _ ____ _ ____ _ ____ 
 72
    65
 73
     4
 40
2.0
 49
1.25
 74
     0
 49
-0.25
 74
     0
 49
0.25
 74
     0
 49
-0.25
 74
     0
  0
LTYPE
  5
27
330
5
100
AcDbSymbolTableRecord
100
AcDbLinetypeTableRecord
  2
PHANTOM
 70
     0
  3
______  __  __  ______  __  __  ______  __  __ 
 72
    65
 73
     6
 40
2.5
 49
1.25
 74
     0
 49
-0.25
 74
     0
 49
0.25
 74
     0
 49
-0.25
 74
     0
 49
0.25
 74
     0
 49
-0.25
 74
     0
  0
LTYPE
  5
28
330
5
100
AcDbSymbolTableRecord
100
AcDbLinetypeTableRecord
  2
BORDER
 70
     0
  3
__ __ . __ __ . __ __ . __ __ . __ __ . __ __ .
 72
    65
 73
     6
 40
1.75
 49
0.5
 74
     0
 49
-0.25
 74
     0
 49
0.5
 74
     0
 49
-0.25
 74
     0
 49
0.0
 74
     0
 49
-0.25
 74
     0
  0
LTYPE
  5
5CF
330
5
100
AcDbSymbolTableRecord
100
AcDbLinetypeTableRecord
  2
DYN_DIM
 70
     0
  3
Dashed dynamic dimension line
 72
    65
 73
     2
 40
0.038566102784
 49
0.01101888651
 74
     0
 49
-0.027547216274
 74
     0
  0
ENDTAB
  0
TABLE
  2
LAYER
  5
2
330
0
100
AcDbSymbolTable
 70
    12
  0
LAYER
  5
10
330
2
100
AcDbSymbolTableRecord
100
AcDbLayerTableRecord
  2
0
 70
     0
 62
     7
  6
CONTINUOUS
370
    -3
390
F
  0
LAYER
  5
29
330
2
100
AcDbSymbolTableRecord
100
AcDbLayerTableRecord
  2
CSLAYER1
 70
     0
 62
     7
  6
CONTINUOUS
370
    -3
390
F
  0
LAYER
  5
32
330
2
100
AcDbSymbolTableRecord
100
AcDbLayerTableRecord
  2
CSLAYER10
 70
     0
 62
     3
  6
CONTINUOUS
370
    -3
390
F
  0
LAYER
  5
5D0
330
2
100
AcDbSymbolTableRecord
100
AcDbLayerTableRecord
  2
Defpoints
 70
     0
 62
     7
  6
CONTINUOUS
290
     0
370
    -3
390
F
  0
ENDTAB
  0
TABLE
  2
STYLE
  5
3
330
0
100
AcDbSymbolTable
 70
     3
  0
STYLE
  5
11
330
3
100
AcDbSymbolTableRecord
100
AcDbTextStyleTableRecord
  2
Standard
 70
     0
 40
0.0
 41
1.0
 50
0.0
 71
     0
 42
8.0
  3
txt
  4

  0
STYLE
  5
39
330
3
100
AcDbSymbolTableRecord
100
AcDbTextStyleTableRecord
  2
FX_FONT
 70
     0
 40
1.0
 41
1.0
 50
0.0
 71
     0
 42
1.0
  3
monotxt
  4
bigfont
  0
STYLE
  5
5CE
330
3
100
AcDbSymbolTableRecord
100
AcDbTextStyleTableRecord
  2
DYN_DIM
 70
     0
 40
0.0
 41
1.0
 50
0.0
 71
     0
 42
8.0
  3
txt
  4

  0
ENDTAB
  0
TABLE
  2
VIEW
  5
6
330
0
100
AcDbSymbolTable
 70
     0
  0
ENDTAB
  0
TABLE
  2
UCS
  5
7
330
0
100
AcDbSymbolTable
 70
     0
  0
ENDTAB
  0
TABLE
  2
APPID
  5
9
330
0
100
AcDbSymbolTable
 70
     3
  0
APPID
  5
12
330
9
100
AcDbSymbolTableRecord
100
AcDbRegAppTableRecord
  2
ACAD
 70
     0
  0
APPID
  5
568
330
9
100
AcDbSymbolTableRecord
100
AcDbRegAppTableRecord
  2
AcadAnnotative
 70
     0
  0
APPID
  5
5C7
330
9
100
AcDbSymbolTableRecord
100
AcDbRegAppTableRecord
  2
ACAD_MLEADERVER
 70
     0
  0
ENDTAB
  0
TABLE
  2
DIMSTYLE
  5
A
330
0
100
AcDbSymbolTable
 70
     1
100
AcDbDimStyleTable
  0
DIMSTYLE
105
3A
330
A
100
AcDbSymbolTableRecord
100
AcDbDimStyleTableRecord
  2
Standard
 70
     0
178
     0
340
11
  0
ENDTAB
  0
TABLE
  2
BLOCK_RECORD
  5
1
330
0
100
AcDbSymbolTable
 70
    38
  0
BLOCK_RECORD
  5
1D
102
{ACAD_XDICTIONARY
360
569
102
}
330
1
100
AcDbSymbolTableRecord
100
AcDbBlockTableRecord
  2
*Model_Space
340
1E
  0
BLOCK_RECORD
  5
1B
330
1
100
AcDbSymbolTableRecord
100
AcDbBlockTableRecord
  2
*Paper_Space
340
1C
  0
BLOCK_RECORD
  5
CD
330
1
100
AcDbSymbolTableRecord
100
AcDbBlockTableRecord
  2
FXDIM0000
340
0
  0
BLOCK_RECORD
  5
EB
330
1
100
AcDbSymbolTableRecord
100
AcDbBlockTableRecord
  2
FXDIM0001
340
0
  0
BLOCK_RECORD
  5
11D
330
1
100
AcDbSymbolTableRecord
100
AcDbBlockTableRecord
  2
FXDIM0002
340
0
  0
BLOCK_RECORD
  5
129
330
1
100
AcDbSymbolTableRecord
100
AcDbBlockTableRecord
  2
FXDIM0003
340
0
  0
BLOCK_RECORD
  5
131
330
1
100
AcDbSymbolTableRecord
100
AcDbBlockTableRecord
  2
FXDIM0004
340
0
  0
BLOCK_RECORD
  5
179
330
1
100
AcDbSymbolTableRecord
100
AcDbBlockTableRecord
  2
FXDIM0005
340
0
  0
BLOCK_RECORD
  5
1A2
330
1
100
AcDbSymbolTableRecord
100
AcDbBlockTableRecord
  2
BLKF0000
340
0
  0
BLOCK_RECORD
  5
1C0
330
1
100
AcDbSymbolTableRecord
100
AcDbBlockTableRecord
  2
BLKF0001
340
0
102
{BLKREFS
331
4C9
102
}
  0
BLOCK_RECORD
  5
478
330
1
100
AcDbSymbolTableRecord
100
AcDbBlockTableRecord
  2
ACE00A8
340
0
  0
BLOCK_RECORD
  5
4A3
330
1
100
AcDbSymbolTableRecord
100
AcDbBlockTableRecord
  2
ACE0138
340
0
  0
ENDTAB
  0
ENDSEC
  0
SECTION
  2
BLOCKS
  0
BLOCK
  5
352
330
1D
100
AcDbEntity
  8
0
100
AcDbBlockBegin
  2
*Model_Space
 70
     0
 10
0.0
 20
0.0
 30
0.0
  3
*Model_Space
  1

  0
ENDBLK
  5
353
330
1D
100
AcDbEntity
  8
0
100
AcDbBlockEnd
  0
BLOCK
  5
354
330
1B
100
AcDbEntity
 67
     1
  8
0
100
AcDbBlockBegin
  2
*Paper_Space
 70
     0
 10
0.0
 20
0.0
 30
0.0
  3
*Paper_Space
  1

  0
ENDBLK
  5
355
330
1B
100
AcDbEntity
 67
     1
  8
0
100
AcDbBlockEnd
  0
BLOCK
  5
CC
330
CD
100
AcDbEntity
  8
CSLAYER1
100
AcDbBlockBegin
  2
FXDIM0000
 70
     0
 10
0.0
 20
0.0
 30
0.0
  3
FXDIM0000
  1

  0
TEXT
  5
CE
330
CD
100
AcDbEntity
  8
CSLAYER1
 62
     7
100
AcDbText
 10
122.681564
 20
133.207291
 30
0.0
 40
3.0
  1
2-4mmネジ用穴
 41
0.550699300699
  7
FX_FONT
 72
     5
 11
138.431564
 21
133.207291
 31
0.0
100
AcDbText
  0
LINE
  5
CF
330
CD
100
AcDbEntity
  8
CSLAYER1
  6
Continuous
 62
     7
100
AcDbLine
 10
151.850013
 20
119.78884
 30
0.0
 11
138.931559
 21
132.707295
 31
0.0
  0
LINE
  5
D0
330
CD
100
AcDbEntity
  8
CSLAYER1
  6
Continuous
 62
     7
100
AcDbLine
 10
151.850013
 20
119.78884
 30
0.0
 11
150.117962
 21
120.78884
 31
0.0
  0
LINE
  5
D1
330
CD
100
AcDbEntity
  8
CSLAYER1
  6
Continuous
 62
     7
100
AcDbLine
 10
151.850013
 20
119.78884
 30
0.0
 11
150.850013
 21
121.520891
 31
0.0
  0
LINE
  5
D2
330
CD
100
AcDbEntity
  8
CSLAYER1
  6
Continuous
 62
     7
100
AcDbLine
 10
138.931559
 20
132.707295
 30
0.0
 11
121.582985
 21
132.707295
 31
0.0
  0
ENDBLK
  5
D3
330
CD
100
AcDbEntity
  8
0
100
AcDbBlockEnd
  0
BLOCK
  5
EA
330
EB
100
AcDbEntity
  8
CSLAYER1
100
AcDbBlockBegin
  2
FXDIM0001
 70
     0
 10
0.0
 20
0.0
 30
0.0
  3
FXDIM0001
  1

  0
TEXT
  5
EC
330
EB
100
AcDbEntity
  8
CSLAYER1
 62
     7
100
AcDbText
 10
240.030029
 20
137.758667
 30
0.0
 40
3.0
  1
2-4mmネジ用穴
 41
0.550699300699
  7
FX_FONT
 72
     5
 11
255.780029
 21
137.758667
 31
0.0
100
AcDbText
  0
LINE
  5
ED
330
EB
100
AcDbEntity
  8
CSLAYER1
  6
Continuous
 62
     7
100
AcDbLine
 10
267.962704
 20
125.790226
 30
0.0
 11
256.751545
 21
137.001386
 31
0.0
  0
LINE
  5
EE
330
EB
100
AcDbEntity
  8
CSLAYER1
  6
Continuous
 62
     7
100
AcDbLine
 10
267.962704
 20
125.790226
 30
0.0
 11
266.230654
 21
126.790226
 31
0.0
  0
LINE
  5
EF
330
EB
100
AcDbEntity
  8
CSLAYER1
  6
Continuous
 62
     7
100
AcDbLine
 10
267.962704
 20
125.790226
 30
0.0
 11
266.962704
 21
127.522277
 31
0.0
  0
LINE
  5
F0
330
EB
100
AcDbEntity
  8
CSLAYER1
  6
Continuous
 62
     7
100
AcDbLine
 10
256.751545
 20
137.001386
 30
0.0
 11
239.465162
 21
137.001386
 31
0.0
  0
ENDBLK
  5
F1
330
EB
100
AcDbEntity
  8
0
100
AcDbBlockEnd
  0
BLOCK
  5
11C
330
11D
100
AcDbEntity
  8
CSLAYER1
100
AcDbBlockBegin
  2
FXDIM0002
 70
     0
 10
0.0
 20
0.0
 30
0.0
  3
FXDIM0002
  1

  0
TEXT
  5
11E
330
11D
100
AcDbEntity
  8
CSLAYER10
 62
     7
100
AcDbText
 10
259.985138
 20
190.311066
 30
0.0
 40
3.0
  1
バックセット６０
 50
90.0
 41
0.510948905109
  7
FX_FONT
 72
     5
 11
259.985138
 21
204.311066
 31
0.0
100
AcDbText
  0
LINE
  5
11F
330
11D
100
AcDbEntity
  8
CSLAYER10
  6
Continuous
 62
     7
100
AcDbLine
 10
263.462704
 20
183.428081
 30
0.0
 11
258.462704
 21
183.428081
 31
0.0
  0
LINE
  5
120
330
11D
100
AcDbEntity
  8
CSLAYER10
  6
Continuous
 62
     7
100
AcDbLine
 10
264.212704
 20
213.428081
 30
0.0
 11
258.462704
 21
213.428081
 31
0.0
  0
LINE
  5
121
330
11D
100
AcDbEntity
  8
CSLAYER10
  6
Continuous
 62
     7
100
AcDbLine
 10
258.962704
 20
183.428081
 30
0.0
 11
258.962704
 21
189.621329
 31
0.0
  0
LINE
  5
122
330
11D
100
AcDbEntity
  8
CSLAYER10
  6
Continuous
 62
     7
100
AcDbLine
 10
258.962704
 20
183.428081
 30
0.0
 11
258.445066
 21
185.359933
 31
0.0
  0
LINE
  5
123
330
11D
100
AcDbEntity
  8
CSLAYER10
  6
Continuous
 62
     7
100
AcDbLine
 10
258.962704
 20
183.428081
 30
0.0
 11
259.480342
 21
185.359933
 31
0.0
  0
LINE
  5
124
330
11D
100
AcDbEntity
  8
CSLAYER10
  6
Continuous
 62
     7
100
AcDbLine
 10
258.962704
 20
205.575262
 30
0.0
 11
258.962704
 21
213.428081
 31
0.0
  0
LINE
  5
125
330
11D
100
AcDbEntity
  8
CSLAYER10
  6
Continuous
 62
     7
100
AcDbLine
 10
258.962704
 20
213.428081
 30
0.0
 11
258.445066
 21
211.49623
 31
0.0
  0
LINE
  5
126
330
11D
100
AcDbEntity
  8
CSLAYER10
  6
Continuous
 62
     7
100
AcDbLine
 10
258.962704
 20
213.428081
 30
0.0
 11
259.480342
 21
211.49623
 31
0.0
  0
ENDBLK
  5
127
330
11D
100
AcDbEntity
  8
0
100
AcDbBlockEnd
  0
BLOCK
  5
128
330
129
100
AcDbEntity
  8
CSLAYER1
100
AcDbBlockBegin
  2
FXDIM0003
 70
     0
 10
0.0
 20
0.0
 30
0.0
  3
FXDIM0003
  1

  0
TEXT
  5
12A
330
129
100
AcDbEntity
  8
CSLAYER10
 62
     7
100
AcDbText
 10
262.568878
 20
240.090179
 30
0.0
 40
3.0
  1
本体取付穴
 41
0.508720930233
  7
FX_FONT
 72
     5
 11
271.318878
 21
240.090179
 31
0.0
100
AcDbText
  0
LINE
  5
12B
330
129
100
AcDbEntity
  8
CSLAYER10
  6
Continuous
 62
     7
100
AcDbLine
 10
278.212704
 20
213.428081
 30
0.0
 11
265.302046
 21
235.027125
 31
0.0
  0
LINE
  5
12C
330
129
100
AcDbEntity
  8
CSLAYER10
  6
Continuous
 62
     7
100
AcDbLine
 10
278.212704
 20
213.428081
 30
0.0
 11
276.777216
 21
214.820695
 31
0.0
  0
LINE
  5
12D
330
129
100
AcDbEntity
  8
CSLAYER10
  6
Continuous
 62
     7
100
AcDbLine
 10
278.212704
 20
213.428081
 30
0.0
 11
277.665842
 21
215.351865
 31
0.0
  0
LINE
  5
12E
330
129
100
AcDbEntity
  8
CSLAYER10
  6
Continuous
 62
     7
100
AcDbLine
 10
265.302046
 20
235.027125
 30
0.0
 11
278.985143
 21
235.027125
 31
0.0
  0
ENDBLK
  5
12F
330
129
100
AcDbEntity
  8
0
100
AcDbBlockEnd
  0
BLOCK
  5
130
330
131
100
AcDbEntity
  8
CSLAYER1
100
AcDbBlockBegin
  2
FXDIM0004
 70
     0
 10
0.0
 20
0.0
 30
0.0
  3
FXDIM0004
  1

  0
TEXT
  5
132
330
131
100
AcDbEntity
  8
CSLAYER10
 62
     7
100
AcDbText
 10
168.882492
 20
181.521927
 30
0.0
 40
3.0
  1
ラッチ取付穴%%c22
 41
0.523255813953
  7
FX_FONT
 72
     5
 11
184.632492
 21
181.521927
 31
0.0
100
AcDbText
  0
LINE
  5
133
330
131
100
AcDbEntity
  8
CSLAYER10
  6
Continuous
 62
     7
100
AcDbLine
 10
151.850013
 20
213.428081
 30
0.0
 11
167.934693
 21
180.075373
 31
0.0
  0
LINE
  5
134
330
131
100
AcDbEntity
  8
CSLAYER10
  6
Continuous
 62
     7
100
AcDbLine
 10
151.850013
 20
213.428081
 30
0.0
 11
153.155431
 21
211.912864
 31
0.0
  0
LINE
  5
135
330
131
100
AcDbEntity
  8
CSLAYER10
  6
Continuous
 62
     7
100
AcDbLine
 10
151.850013
 20
213.428081
 30
0.0
 11
152.222929
 21
211.463156
 31
0.0
  0
LINE
  5
136
330
131
100
AcDbEntity
  8
CSLAYER10
  6
Continuous
 62
     7
100
AcDbLine
 10
167.934693
 20
180.075373
 30
0.0
 11
184.440778
 21
180.075373
 31
0.0
  0
ENDBLK
  5
137
330
131
100
AcDbEntity
  8
0
100
AcDbBlockEnd
  0
BLOCK
  5
178
330
179
100
AcDbEntity
  8
CSLAYER1
100
AcDbBlockBegin
  2
FXDIM0005
 70
     0
 10
0.0
 20
0.0
 30
0.0
  3
FXDIM0005
  1

  0
LINE
  5
17A
330
179
100
AcDbEntity
  8
CSLAYER1
  6
Continuous
 62
     7
100
AcDbLine
 10
143.600013
 20
230.103081
 30
0.0
 11
143.600013
 21
240.428081
 31
0.0
  0
LINE
  5
17B
330
179
100
AcDbEntity
  8
CSLAYER1
  6
Continuous
 62
     7
100
AcDbLine
 10
160.100013
 20
230.103081
 30
0.0
 11
160.100013
 21
240.428081
 31
0.0
  0
LINE
  5
17C
330
179
100
AcDbEntity
  8
CSLAYER1
  6
Continuous
 62
     7
100
AcDbLine
 10
143.600013
 20
239.428081
 30
0.0
 11
160.100013
 21
239.428081
 31
0.0
  0
LINE
  5
17D
330
179
100
AcDbEntity
  8
CSLAYER1
  6
Continuous
 62
     7
100
AcDbLine
 10
143.600013
 20
239.428081
 30
0.0
 11
145.531865
 21
239.945719
 31
0.0
  0
LINE
  5
17E
330
179
100
AcDbEntity
  8
CSLAYER1
  6
Continuous
 62
     7
100
AcDbLine
 10
143.600013
 20
239.428081
 30
0.0
 11
145.531865
 21
238.910443
 31
0.0
  0
LINE
  5
17F
330
179
100
AcDbEntity
  8
CSLAYER1
  6
Continuous
 62
     7
100
AcDbLine
 10
160.100013
 20
239.428081
 30
0.0
 11
158.168161
 21
239.945719
 31
0.0
  0
LINE
  5
180
330
179
100
AcDbEntity
  8
CSLAYER1
  6
Continuous
 62
     7
100
AcDbLine
 10
160.100013
 20
239.428081
 30
0.0
 11
158.168161
 21
238.910443
 31
0.0
  0
ENDBLK
  5
181
330
179
100
AcDbEntity
  8
0
100
AcDbBlockEnd
  0
BLOCK
  5
1A1
330
1A2
100
AcDbEntity
  8
CSLAYER1
100
AcDbBlockBegin
  2
BLKF0000
 70
     0
 10
0.0
 20
0.0
 30
0.0
  3
BLKF0000
  1

  0
LINE
  5
1A3
330
1A2
100
AcDbEntity
  8
CSLAYER10
  6
Continuous
 62
     7
100
AcDbLine
 10
268.666763
 20
203.88214
 30
0.0
 11
287.758646
 21
222.974023
 31
0.0
  0
LINE
  5
1A4
330
1A2
100
AcDbEntity
  8
CSLAYER10
  6
Continuous
 62
     7
100
AcDbLine
 10
267.985881
 20
204.615472
 30
0.0
 11
287.025314
 21
223.654905
 31
0.0
  0
LINE
  5
1A5
330
1A2
100
AcDbEntity
  8
CSLAYER10
  6
Continuous
 62
     7
100
AcDbLine
 10
267.357887
 20
205.401691
 30
0.0
 11
286.239095
 21
224.282899
 31
0.0
  0
LINE
  5
1A6
330
1A2
100
AcDbEntity
  8
CSLAYER10
  6
Continuous
 62
     7
100
AcDbLine
 10
266.784129
 20
206.242146
 30
0.0
 11
285.398639
 21
224.856657
 31
0.0
  0
LINE
  5
1A7
330
1A2
100
AcDbEntity
  8
CSLAYER10
  6
Continuous
 62
     7
100
AcDbLine
 10
266.266986
 20
207.139217
 30
0.0
 11
284.501569
 21
225.3738
 31
0.0
  0
LINE
  5
1A8
330
1A2
100
AcDbEntity
  8
CSLAYER10
  6
Continuous
 62
     7
100
AcDbLine
 10
265.810097
 20
208.096541
 30
0.0
 11
283.544244
 21
225.830689
 31
0.0
  0
LINE
  5
1A9
330
1A2
100
AcDbEntity
  8
CSLAYER10
  6
Continuous
 62
     7
100
AcDbLine
 10
265.418748
 20
209.119406
 30
0.0
 11
282.521379
 21
226.222038
 31
0.0
  0
LINE
  5
1AA
330
1A2
100
AcDbEntity
  8
CSLAYER10
  6
Continuous
 62
     7
100
AcDbLine
 10
265.100543
 20
210.215415
 30
0.0
 11
281.425371
 21
226.540243
 31
0.0
  0
LINE
  5
1AB
330
1A2
100
AcDbEntity
  8
CSLAYER10
  6
Continuous
 62
     7
100
AcDbLine
 10
264.866572
 20
211.395657
 30
0.0
 11
280.245128
 21
226.774214
 31
0.0
  0
LINE
  5
1AC
330
1A2
100
AcDbEntity
  8
CSLAYER10
  6
Continuous
 62
     7
100
AcDbLine
 10
264.733619
 20
212.676918
 30
0.0
 11
278.963868
 21
226.907167
 31
0.0
  0
LINE
  5
1AD
330
1A2
100
AcDbEntity
  8
CSLAYER10
  6
Continuous
 62
     7
100
AcDbLine
 10
264.728759
 20
214.086272
 30
0.0
 11
277.554514
 21
226.912027
 31
0.0
  0
LINE
  5
1AE
330
1A2
100
AcDbEntity
  8
CSLAYER10
  6
Continuous
 62
     7
100
AcDbLine
 10
264.900544
 20
215.67227
 30
0.0
 11
275.968516
 21
226.740242
 31
0.0
  0
LINE
  5
1AF
330
1A2
100
AcDbEntity
  8
CSLAYER10
  6
Continuous
 62
     7
100
AcDbLine
 10
265.354209
 20
217.540149
 30
0.0
 11
274.100637
 21
226.286577
 31
0.0
  0
LINE
  5
1B0
330
1A2
100
AcDbEntity
  8
CSLAYER10
  6
Continuous
 62
     7
100
AcDbLine
 10
266.446409
 20
220.046562
 30
0.0
 11
271.594224
 21
225.194377
 31
0.0
  0
LINE
  5
1B1
330
1A2
100
AcDbEntity
  8
CSLAYER10
  6
Continuous
 62
     7
100
AcDbLine
 10
269.400095
 20
203.201258
 30
0.0
 11
288.439528
 21
222.240691
 31
0.0
  0
LINE
  5
1B2
330
1A2
100
AcDbEntity
  8
CSLAYER10
  6
Continuous
 62
     7
100
AcDbLine
 10
270.186314
 20
202.573264
 30
0.0
 11
289.067522
 21
221.454472
 31
0.0
  0
LINE
  5
1B3
330
1A2
100
AcDbEntity
  8
CSLAYER10
  6
Continuous
 62
     7
100
AcDbLine
 10
271.02677
 20
201.999506
 30
0.0
 11
289.64128
 21
220.614016
 31
0.0
  0
LINE
  5
1B4
330
1A2
100
AcDbEntity
  8
CSLAYER10
  6
Continuous
 62
     7
100
AcDbLine
 10
271.92384
 20
201.482363
 30
0.0
 11
290.158423
 21
219.716946
 31
0.0
  0
LINE
  5
1B5
330
1A2
100
AcDbEntity
  8
CSLAYER10
  6
Continuous
 62
     7
100
AcDbLine
 10
272.881164
 20
201.025474
 30
0.0
 11
290.615312
 21
218.759621
 31
0.0
  0
LINE
  5
1B6
330
1A2
100
AcDbEntity
  8
CSLAYER10
  6
Continuous
 62
     7
100
AcDbLine
 10
273.904029
 20
200.634125
 30
0.0
 11
291.006661
 21
217.736756
 31
0.0
  0
LINE
  5
1B7
330
1A2
100
AcDbEntity
  8
CSLAYER10
  6
Continuous
 62
     7
100
AcDbLine
 10
275.000038
 20
200.31592
 30
0.0
 11
291.324866
 21
216.640748
 31
0.0
  0
LINE
  5
1B8
330
1A2
100
AcDbEntity
  8
CSLAYER10
  6
Continuous
 62
     7
100
AcDbLine
 10
276.18028
 20
200.081949
 30
0.0
 11
291.558837
 21
215.460505
 31
0.0
  0
LINE
  5
1B9
330
1A2
100
AcDbEntity
  8
CSLAYER10
  6
Continuous
 62
     7
100
AcDbLine
 10
277.461541
 20
199.948996
 30
0.0
 11
291.69179
 21
214.179245
 31
0.0
  0
LINE
  5
1BA
330
1A2
100
AcDbEntity
  8
CSLAYER10
  6
Continuous
 62
     7
100
AcDbLine
 10
278.870895
 20
199.944136
 30
0.0
 11
291.69665
 21
212.769891
 31
0.0
  0
LINE
  5
1BB
330
1A2
100
AcDbEntity
  8
CSLAYER10
  6
Continuous
 62
     7
100
AcDbLine
 10
280.456893
 20
200.115921
 30
0.0
 11
291.524865
 21
211.183893
 31
0.0
  0
LINE
  5
1BC
330
1A2
100
AcDbEntity
  8
CSLAYER10
  6
Continuous
 62
     7
100
AcDbLine
 10
282.324772
 20
200.569586
 30
0.0
 11
291.0712
 21
209.316014
 31
0.0
  0
LINE
  5
1BD
330
1A2
100
AcDbEntity
  8
CSLAYER10
  6
Continuous
 62
     7
100
AcDbLine
 10
284.831185
 20
201.661786
 30
0.0
 11
289.979
 21
206.809601
 31
0.0
  0
ENDBLK
  5
1BE
330
1A2
100
AcDbEntity
  8
0
100
AcDbBlockEnd
  0
BLOCK
  5
1BF
330
1C0
100
AcDbEntity
  8
CSLAYER1
100
AcDbBlockBegin
  2
BLKF0001
 70
     0
 10
0.0
 20
0.0
 30
0.0
  3
BLKF0001
  1

  0
LINE
  5
1C1
330
1C0
100
AcDbEntity
  8
CSLAYER10
  6
Continuous
 62
     7
100
AcDbLine
 10
147.960926
 20
209.538994
 30
0.0
 11
155.7391
 21
217.317169
 31
0.0
  0
LINE
  5
1C2
330
1C0
100
AcDbEntity
  8
CSLAYER10
  6
Continuous
 62
     7
100
AcDbLine
 10
147.318642
 20
210.310924
 30
0.0
 11
154.967171
 21
217.959453
 31
0.0
  0
LINE
  5
1C3
330
1C0
100
AcDbEntity
  8
CSLAYER10
  6
Continuous
 62
     7
100
AcDbLine
 10
146.812955
 20
211.219451
 30
0.0
 11
154.058644
 21
218.465139
 31
0.0
  0
LINE
  5
1C4
330
1C0
100
AcDbEntity
  8
CSLAYER10
  6
Continuous
 62
     7
100
AcDbLine
 10
146.469091
 20
212.289801
 30
0.0
 11
152.988294
 21
218.809003
 31
0.0
  0
LINE
  5
1C5
330
1C0
100
AcDbEntity
  8
CSLAYER10
  6
Continuous
 62
     7
100
AcDbLine
 10
146.352316
 20
213.587239
 30
0.0
 11
151.690855
 21
218.925778
 31
0.0
  0
LINE
  5
1C6
330
1C0
100
AcDbEntity
  8
CSLAYER10
  6
Continuous
 62
     7
100
AcDbLine
 10
146.694294
 20
215.34343
 30
0.0
 11
149.934664
 21
218.5838
 31
0.0
  0
LINE
  5
1C7
330
1C0
100
AcDbEntity
  8
CSLAYER10
  6
Continuous
 62
     7
100
AcDbLine
 10
148.732855
 20
208.89671
 30
0.0
 11
156.381384
 21
216.545239
 31
0.0
  0
LINE
  5
1C8
330
1C0
100
AcDbEntity
  8
CSLAYER10
  6
Continuous
 62
     7
100
AcDbLine
 10
149.641382
 20
208.391024
 30
0.0
 11
156.887071
 21
215.636712
 31
0.0
  0
LINE
  5
1C9
330
1C0
100
AcDbEntity
  8
CSLAYER10
  6
Continuous
 62
     7
100
AcDbLine
 10
150.711732
 20
208.04716
 30
0.0
 11
157.230934
 21
214.566362
 31
0.0
  0
LINE
  5
1CA
330
1C0
100
AcDbEntity
  8
CSLAYER10
  6
Continuous
 62
     7
100
AcDbLine
 10
152.00917
 20
207.930385
 30
0.0
 11
157.34771
 21
213.268924
 31
0.0
  0
LINE
  5
1CB
330
1C0
100
AcDbEntity
  8
CSLAYER10
  6
Continuous
 62
     7
100
AcDbLine
 10
153.765362
 20
208.272362
 30
0.0
 11
157.005732
 21
211.512733
 31
0.0
  0
ENDBLK
  5
1CC
330
1C0
100
AcDbEntity
  8
0
100
AcDbBlockEnd
  0
BLOCK
  5
49E
330
478
100
AcDbEntity
  8
0
100
AcDbBlockBegin
  2
ACE00A8
 70
     0
 10
0.0
 20
0.0
 30
0.0
  3
ACE00A8
  1

  0
TEXT
  5
49D
330
478
100
AcDbEntity
  8
CSLAYER1
 62
     7
100
AcDbText
 10
-0.289655172414
 20
0.0
 30
0.0
 40
3.0
  1
55.5～60.5
 41
0.579310344828
  7
FX_FONT
 72
     5
 11
15.460344827586
 21
0.0
 31
0.0
100
AcDbText
  0
ENDBLK
  5
49F
330
478
100
AcDbEntity
  8
0
100
AcDbBlockEnd
  0
BLOCK
  5
4E0
330
4A3
100
AcDbEntity
  8
0
100
AcDbBlockBegin
  2
ACE0138
 70
     0
 10
0.0
 20
0.0
 30
0.0
  3
ACE0138
  1

  0
INSERT
  5
4C9
330
4A3
100
AcDbEntity
  8
CSLAYER1
100
AcDbBlockReference
  2
BLKF0001
 10
-81.927536
 20
-97.78884
 30
0.0
  0
TEXT
  5
4D8
330
4A3
100
AcDbEntity
  8
CSLAYER1
 62
     7
100
AcDbText
 10
3.0
 20
6.750009
 30
0.0
 40
3.0
  1
34
 50
90.0
 41
0.636363636364
  7
FX_FONT
 72
     5
 11
3.0
 21
10.250009
 31
0.0
100
AcDbText
  0
LINE
  5
4D9
330
4A3
100
AcDbEntity
  8
CSLAYER1
  6
Continuous
 62
     7
100
AcDbLine
 10
11.500005
 20
0.0
 30
0.0
 11
3.000005
 21
0.0
 31
0.0
  0
LINE
  5
4DA
330
4A3
100
AcDbEntity
  8
CSLAYER1
  6
Continuous
 62
     7
100
AcDbLine
 10
11.500005
 20
17.0
 30
0.0
 11
3.000005
 21
17.0
 31
0.0
  0
LINE
  5
4DB
330
4A3
100
AcDbEntity
  8
CSLAYER1
  6
Continuous
 62
     7
100
AcDbLine
 10
3.500005
 20
0.0
 30
0.0
 11
3.500005
 21
17.0
 31
0.0
  0
LINE
  5
4DC
330
4A3
100
AcDbEntity
  8
CSLAYER1
  6
Continuous
 62
     7
100
AcDbLine
 10
3.500005
 20
0.0
 30
0.0
 11
2.982367
 21
1.931852
 31
0.0
  0
LINE
  5
4DD
330
4A3
100
AcDbEntity
  8
CSLAYER1
  6
Continuous
 62
     7
100
AcDbLine
 10
3.500005
 20
0.0
 30
0.0
 11
4.017643
 21
1.931852
 31
0.0
  0
LINE
  5
4DE
330
4A3
100
AcDbEntity
  8
CSLAYER1
  6
Continuous
 62
     7
100
AcDbLine
 10
3.500005
 20
17.0
 30
0.0
 11
2.982367
 21
15.068149
 31
0.0
  0
LINE
  5
4DF
330
4A3
100
AcDbEntity
  8
CSLAYER1
  6
Continuous
 62
     7
100
AcDbLine
 10
3.500005
 20
17.0
 30
0.0
 11
4.017643
 21
15.068149
 31
0.0
  0
ENDBLK
  5
4E1
330
4A3
100
AcDbEntity
  8
0
100
AcDbBlockEnd
  0
ENDSEC
  0
SECTION
  2
ENTITIES
  0
LINE
  5
1F5
330
1D
100
AcDbEntity
  8
CSLAYER1
  6
Continuous
100
AcDbLine
 10
189.170318011109
 20
123.66384
 30
0.0
 11
189.170318011109
 21
88.91384
 31
0.0
  0
LINE
  5
1F6
330
1D
100
AcDbEntity
  8
CSLAYER1
  6
Continuous
100
AcDbLine
 10
189.170318011109
 20
88.91384
 30
0.0
 11
188.570318011109
 21
88.91384
 31
0.0
  0
LINE
  5
1F7
330
1D
100
AcDbEntity
  8
CSLAYER1
  6
Continuous
100
AcDbLine
 10
188.570318011109
 20
88.91384
 30
0.0
 11
188.570318011109
 21
123.66384
 31
0.0
  0
LINE
  5
1F8
330
1D
100
AcDbEntity
  8
CSLAYER1
  6
Continuous
100
AcDbLine
 10
188.570318011109
 20
123.66384
 30
0.0
 11
189.170318011109
 21
123.66384
 31
0.0
  0
LINE
  5
1F9
330
1D
100
AcDbEntity
  8
CSLAYER1
  6
Continuous
100
AcDbLine
 10
146.763696050471
 20
123.16384
 30
0.0
 11
146.763696050471
 21
89.41384
 31
0.0
  0
LINE
  5
1FA
330
1D
100
AcDbEntity
  8
CSLAYER1
  6
Continuous
100
AcDbLine
 10
146.263696050471
 20
88.91384
 30
0.0
 11
133.263696050471
 21
88.91384
 31
0.0
  0
LINE
  5
1FB
330
1D
100
AcDbEntity
  8
CSLAYER1
  6
Continuous
100
AcDbLine
 10
132.763696050471
 20
89.41384
 30
0.0
 11
132.763696050471
 21
96.28884
 31
0.0
  0
ARC
  5
1FC
330
1D
100
AcDbEntity
  8
CSLAYER1
  6
Continuous
100
AcDbCircle
 10
132.263696050471
 20
96.28884
 30
0.0
 40
0.5
100
AcDbArc
 50
0.0
 51
90.0
  0
LINE
  5
1FD
330
1D
100
AcDbEntity
  8
CSLAYER1
  6
Continuous
100
AcDbLine
 10
132.263696050471
 20
96.78884
 30
0.0
 11
129.263696050471
 21
96.78884
 31
0.0
  0
LINE
  5
1FE
330
1D
100
AcDbEntity
  8
CSLAYER1
  6
Continuous
100
AcDbLine
 10
127.263696050471
 20
98.78884
 30
0.0
 11
127.263696050471
 21
113.78884
 31
0.0
  0
LINE
  5
1FF
330
1D
100
AcDbEntity
  8
CSLAYER1
  6
Continuous
100
AcDbLine
 10
129.263696050471
 20
115.78884
 30
0.0
 11
132.263696050471
 21
115.78884
 31
0.0
  0
ARC
  5
200
330
1D
100
AcDbEntity
  8
CSLAYER1
  6
Continuous
100
AcDbCircle
 10
132.263696050471
 20
116.28884
 30
0.0
 40
0.5
100
AcDbArc
 50
270.0
 51
0.0
  0
LINE
  5
201
330
1D
100
AcDbEntity
  8
CSLAYER1
  6
Continuous
100
AcDbLine
 10
132.763696050471
 20
116.28884
 30
0.0
 11
132.763696050471
 21
123.16384
 31
0.0
  0
LINE
  5
202
330
1D
100
AcDbEntity
  8
CSLAYER1
  6
Continuous
100
AcDbLine
 10
133.263696050471
 20
123.66384
 30
0.0
 11
146.263696050471
 21
123.66384
 31
0.0
  0
ARC
  5
203
330
1D
100
AcDbEntity
  8
CSLAYER1
  6
Continuous
100
AcDbCircle
 10
146.263696050471
 20
123.16384
 30
0.0
 40
0.5
100
AcDbArc
 50
0.0
 51
90.0
  0
CIRCLE
  5
204
330
1D
100
AcDbEntity
  8
CSLAYER1
  6
Continuous
100
AcDbCircle
 10
139.763696050471
 20
119.78884
 30
0.0
 40
1.675
  0
CIRCLE
  5
205
330
1D
100
AcDbEntity
  8
CSLAYER1
  6
Continuous
100
AcDbCircle
 10
139.763696050471
 20
119.78884
 30
0.0
 40
2.25
  0
ARC
  5
206
330
1D
100
AcDbEntity
  8
CSLAYER1
  6
Continuous
100
AcDbCircle
 10
133.263696050471
 20
123.16384
 30
0.0
 40
0.5
100
AcDbArc
 50
90.0
 51
180.0
  0
ARC
  5
207
330
1D
100
AcDbEntity
  8
CSLAYER1
  6
Continuous
100
AcDbCircle
 10
129.263696050471
 20
113.78884
 30
0.0
 40
2.0
100
AcDbArc
 50
90.0
 51
180.0
  0
LINE
  5
208
330
1D
100
AcDbEntity
  8
CSLAYER1
  6
Continuous
100
AcDbLine
 10
137.263696050471
 20
112.78884
 30
0.0
 11
137.263696050471
 21
99.78884
 31
0.0
  0
ARC
  5
209
330
1D
100
AcDbEntity
  8
CSLAYER1
  6
Continuous
100
AcDbCircle
 10
138.263696050471
 20
99.78884
 30
0.0
 40
1.0
100
AcDbArc
 50
180.0
 51
270.0
  0
LINE
  5
20A
330
1D
100
AcDbEntity
  8
CSLAYER1
  6
Continuous
100
AcDbLine
 10
138.263696050471
 20
98.78884
 30
0.0
 11
143.013696050471
 21
98.78884
 31
0.0
  0
ARC
  5
20B
330
1D
100
AcDbEntity
  8
CSLAYER1
  6
Continuous
100
AcDbCircle
 10
143.013696050471
 20
99.78884
 30
0.0
 40
1.0
100
AcDbArc
 50
270.0
 51
0.0
  0
LINE
  5
20C
330
1D
100
AcDbEntity
  8
CSLAYER1
  6
Continuous
100
AcDbLine
 10
144.013696050471
 20
99.78884
 30
0.0
 11
144.013696050471
 21
112.78884
 31
0.0
  0
ARC
  5
20D
330
1D
100
AcDbEntity
  8
CSLAYER1
  6
Continuous
100
AcDbCircle
 10
143.013696050471
 20
112.78884
 30
0.0
 40
1.0
100
AcDbArc
 50
0.0
 51
90.0
  0
LINE
  5
20E
330
1D
100
AcDbEntity
  8
CSLAYER1
  6
Continuous
100
AcDbLine
 10
143.013696050471
 20
113.78884
 30
0.0
 11
138.263696050471
 21
113.78884
 31
0.0
  0
ARC
  5
20F
330
1D
100
AcDbEntity
  8
CSLAYER1
  6
Continuous
100
AcDbCircle
 10
138.263696050471
 20
112.78884
 30
0.0
 40
1.0
100
AcDbArc
 50
90.0
 51
180.0
  0
ARC
  5
210
330
1D
100
AcDbEntity
  8
CSLAYER1
  6
Continuous
100
AcDbCircle
 10
129.263696050471
 20
98.78884
 30
0.0
 40
2.0
100
AcDbArc
 50
180.0
 51
270.0
  0
ARC
  5
211
330
1D
100
AcDbEntity
  8
CSLAYER1
  6
Continuous
100
AcDbCircle
 10
133.263696050471
 20
89.41384
 30
0.0
 40
0.5
100
AcDbArc
 50
180.0
 51
270.0
  0
CIRCLE
  5
212
330
1D
100
AcDbEntity
  8
CSLAYER1
  6
Continuous
100
AcDbCircle
 10
139.763696050471
 20
92.78884
 30
0.0
 40
2.25
  0
CIRCLE
  5
213
330
1D
100
AcDbEntity
  8
CSLAYER1
  6
Continuous
100
AcDbCircle
 10
139.763696050471
 20
92.78884
 30
0.0
 40
1.675
  0
ARC
  5
214
330
1D
100
AcDbEntity
  8
CSLAYER1
  6
Continuous
100
AcDbCircle
 10
146.263696050471
 20
89.41384
 30
0.0
 40
0.5
100
AcDbArc
 50
270.0
 51
0.0
  0
LINE
  5
215
330
1D
100
AcDbEntity
  8
CSLAYER1
  6
Continuous
100
AcDbLine
 10
146.763696050471
 20
61.450521
 30
0.0
 11
146.763696050471
 21
60.850521
 31
0.0
  0
LINE
  5
216
330
1D
100
AcDbEntity
  8
CSLAYER1
  6
Continuous
100
AcDbLine
 10
146.763696050471
 20
60.850521
 30
0.0
 11
128.263696050471
 21
60.850521
 31
0.0
  0
LINE
  5
217
330
1D
100
AcDbEntity
  8
CSLAYER1
  6
Continuous
100
AcDbLine
 10
128.263696050471
 20
61.450521
 30
0.0
 11
146.763696050471
 21
61.450521
 31
0.0
  0
LINE
  5
218
330
1D
100
AcDbEntity
  8
CSLAYER1
  6
Continuous
100
AcDbLine
 10
127.763696050471
 20
60.350521
 30
0.0
 11
127.763696050471
 21
59.450521
 31
0.0
  0
LINE
  5
219
330
1D
100
AcDbEntity
  8
CSLAYER1
  6
Continuous
100
AcDbLine
 10
127.763696050471
 20
59.450521
 30
0.0
 11
127.163696050471
 21
59.450521
 31
0.0
  0
LINE
  5
21A
330
1D
100
AcDbEntity
  8
CSLAYER1
  6
Continuous
100
AcDbLine
 10
127.163696050471
 20
59.450521
 30
0.0
 11
127.163696050471
 21
60.350521
 31
0.0
  0
ARC
  5
21B
330
1D
100
AcDbEntity
  8
CSLAYER1
  6
Continuous
100
AcDbCircle
 10
128.263696050471
 20
60.350521
 30
0.0
 40
1.1
100
AcDbArc
 50
90.0
 51
180.0
  0
ARC
  5
21C
330
1D
100
AcDbEntity
  8
CSLAYER1
  6
Continuous
100
AcDbCircle
 10
128.263696050471
 20
60.350521
 30
0.0
 40
0.5
100
AcDbArc
 50
90.0
 51
180.0
  0
LINE
  5
221
330
1D
100
AcDbEntity
  8
CSLAYER1
  6
Continuous
100
AcDbLine
 10
280.262704
 20
121.840542
 30
0.0
 11
280.262704
 21
123.740226
 31
0.0
  0
ARC
  5
222
330
1D
100
AcDbEntity
  8
CSLAYER1
  6
Continuous
100
AcDbCircle
 10
278.212704
 20
125.790226
 30
0.0
 40
4.45
100
AcDbArc
 50
332.569382
 51
207.430618
  0
LINE
  5
223
330
1D
100
AcDbEntity
  8
CSLAYER1
  6
Continuous
100
AcDbLine
 10
274.263021
 20
123.740226
 30
0.0
 11
282.162388
 21
123.740226
 31
0.0
  0
LINE
  5
224
330
1D
100
AcDbEntity
  8
CSLAYER1
  6
Continuous
100
AcDbLine
 10
282.468583
 20
124.490226
 30
0.0
 11
273.956826
 21
124.490226
 31
0.0
  0
LINE
  5
225
330
1D
100
AcDbEntity
  8
CSLAYER1
  6
Continuous
100
AcDbLine
 10
276.162704
 20
123.740226
 30
0.0
 11
276.162704
 21
121.840542
 31
0.0
  0
ARC
  5
226
330
1D
100
AcDbEntity
  8
CSLAYER1
  6
Continuous
100
AcDbCircle
 10
278.212704
 20
125.790226
 30
0.0
 40
4.45
100
AcDbArc
 50
242.569382
 51
297.430618
  0
CIRCLE
  5
227
330
1D
100
AcDbEntity
  8
CSLAYER1
  6
Continuous
100
AcDbCircle
 10
288.462704
 20
125.790226
 30
0.0
 40
1.5
  0
CIRCLE
  5
228
330
1D
100
AcDbEntity
  8
CSLAYER1
  6
Continuous
100
AcDbCircle
 10
288.462704
 20
125.790226
 30
0.0
 40
2.125
  0
CIRCLE
  5
229
330
1D
100
AcDbEntity
  8
CSLAYER1
  6
Continuous
100
AcDbCircle
 10
267.962704
 20
125.790226
 30
0.0
 40
2.125
  0
CIRCLE
  5
22A
330
1D
100
AcDbEntity
  8
CSLAYER1
  6
Continuous
100
AcDbCircle
 10
267.962704
 20
125.790226
 30
0.0
 40
1.5
  0
LINE
  5
22B
330
1D
100
AcDbEntity
  8
CSLAYER1
  6
Continuous
100
AcDbLine
 10
273.787704
 20
178.428081
 30
0.0
 11
282.637704
 21
178.428081
 31
0.0
  0
LINE
  5
22C
330
1D
100
AcDbEntity
  8
CSLAYER1
  6
Continuous
100
AcDbLine
 10
282.637704
 20
178.428081
 30
0.0
 11
282.637704
 21
183.428081
 31
0.0
  0
LINE
  5
22D
102
{ACAD_REACTORS
330
56E
102
}
330
1D
100
AcDbEntity
  8
CSLAYER1
  6
Continuous
100
AcDbLine
 10
283.212704
 20
185.028081
 30
0.0
 11
283.212704
 21
201.628081
 31
0.0
  0
LINE
  5
22E
102
{ACAD_REACTORS
330
56E
102
}
330
1D
100
AcDbEntity
  8
CSLAYER1
  6
Continuous
100
AcDbLine
 10
283.212704
 20
201.628081
 30
0.0
 11
282.712704
 21
201.628081
 31
0.0
  0
LINE
  5
22F
102
{ACAD_REACTORS
330
56E
102
}
330
1D
100
AcDbEntity
  8
CSLAYER1
  6
Continuous
100
AcDbLine
 10
282.712704
 20
201.628081
 30
0.0
 11
282.712704
 21
200.128081
 31
0.0
  0
LINE
  5
230
102
{ACAD_REACTORS
330
56E
102
}
330
1D
100
AcDbEntity
  8
CSLAYER1
  6
Continuous
100
AcDbLine
 10
282.712704
 20
200.128081
 30
0.0
 11
273.712704
 21
200.128081
 31
0.0
  0
LINE
  5
231
102
{ACAD_REACTORS
330
56E
102
}
330
1D
100
AcDbEntity
  8
CSLAYER1
  6
Continuous
100
AcDbLine
 10
273.712704
 20
200.128081
 30
0.0
 11
273.712704
 21
201.628081
 31
0.0
  0
LINE
  5
232
102
{ACAD_REACTORS
330
56E
102
}
330
1D
100
AcDbEntity
  8
CSLAYER1
  6
Continuous
100
AcDbLine
 10
273.712704
 20
201.628081
 30
0.0
 11
273.212704
 21
201.628081
 31
0.0
  0
LINE
  5
233
102
{ACAD_REACTORS
330
56E
102
}
330
1D
100
AcDbEntity
  8
CSLAYER1
  6
Continuous
100
AcDbLine
 10
273.212704
 20
201.628081
 30
0.0
 11
273.212704
 21
185.028081
 31
0.0
  0
ARC
  5
234
330
1D
100
AcDbEntity
  8
CSLAYER1
  6
Continuous
100
AcDbCircle
 10
272.712704
 20
185.028081
 30
0.0
 40
0.5
100
AcDbArc
 50
270.0
 51
0.0
  0
LINE
  5
235
330
1D
100
AcDbEntity
  8
CSLAYER1
  6
Continuous
100
AcDbLine
 10
273.787704
 20
183.428081
 30
0.0
 11
273.787704
 21
178.428081
 31
0.0
  0
LINE
  5
236
330
1D
100
AcDbEntity
  8
CSLAYER1
  6
Continuous
100
AcDbLine
 10
269.687704
 20
184.528081
 30
0.0
 11
268.937704
 21
185.028081
 31
0.0
  0
LINE
  5
237
330
1D
100
AcDbEntity
  8
CSLAYER1
  6
Continuous
100
AcDbLine
 10
268.937704
 20
185.028081
 30
0.0
 11
267.437704
 21
185.028081
 31
0.0
  0
LINE
  5
238
330
1D
100
AcDbEntity
  8
CSLAYER1
  6
Continuous
100
AcDbLine
 10
267.437704
 20
185.028081
 30
0.0
 11
266.687704
 21
184.528081
 31
0.0
  0
LINE
  5
239
330
1D
100
AcDbEntity
  8
CSLAYER1
  6
Continuous
100
AcDbLine
 10
264.212704
 20
184.528081
 30
0.0
 11
264.212704
 21
184.028081
 31
0.0
  0
LINE
  5
23A
330
1D
100
AcDbEntity
  8
CSLAYER1
  6
Continuous
100
AcDbLine
 10
264.212704
 20
184.528081
 30
0.0
 11
292.212704
 21
184.528081
 31
0.0
  0
LINE
  5
23B
330
1D
100
AcDbEntity
  8
CSLAYER1
  6
Continuous
100
AcDbLine
 10
292.212704
 20
184.528081
 30
0.0
 11
292.212704
 21
184.028081
 31
0.0
  0
LINE
  5
23C
330
1D
100
AcDbEntity
  8
CSLAYER1
  6
Continuous
100
AcDbLine
 10
289.737704
 20
184.528081
 30
0.0
 11
288.987704
 21
185.028081
 31
0.0
  0
LINE
  5
23D
330
1D
100
AcDbEntity
  8
CSLAYER1
  6
Continuous
100
AcDbLine
 10
288.987704
 20
185.028081
 30
0.0
 11
287.487704
 21
185.028081
 31
0.0
  0
LINE
  5
23E
330
1D
100
AcDbEntity
  8
CSLAYER1
  6
Continuous
100
AcDbLine
 10
287.487704
 20
185.028081
 30
0.0
 11
286.737704
 21
184.528081
 31
0.0
  0
ARC
  5
23F
330
1D
100
AcDbEntity
  8
CSLAYER1
  6
Continuous
100
AcDbCircle
 10
283.712704
 20
185.028081
 30
0.0
 40
0.5
100
AcDbArc
 50
180.0
 51
270.0
  0
ARC
  5
240
330
1D
100
AcDbEntity
  8
CSLAYER1
  6
Continuous
100
AcDbCircle
 10
278.212704
 20
178.502456
 30
0.0
 40
4.425625
100
AcDbArc
 50
359.037068
 51
180.962932
  0
LINE
  5
241
102
{ACAD_REACTORS
330
56E
102
}
330
1D
100
AcDbEntity
  8
CSLAYER1
  6
Continuous
100
AcDbLine
 10
274.562704
 20
200.128081
 30
0.0
 11
274.562704
 21
202.028081
 31
0.0
  0
LINE
  5
242
102
{ACAD_REACTORS
330
56E
102
}
330
1D
100
AcDbEntity
  8
CSLAYER1
  6
Continuous
100
AcDbLine
 10
274.562704
 20
202.028081
 30
0.0
 11
273.837704
 21
202.182185
 31
0.0
  0
LINE
  5
243
102
{ACAD_REACTORS
330
56E
102
}
330
1D
100
AcDbEntity
  8
CSLAYER1
  6
Continuous
100
AcDbLine
 10
273.837704
 20
202.182185
 30
0.0
 11
273.837704
 21
202.795589
 31
0.0
  0
LINE
  5
244
102
{ACAD_REACTORS
330
56E
102
}
330
1D
100
AcDbEntity
  8
CSLAYER1
  6
Continuous
100
AcDbLine
 10
273.837704
 20
202.795589
 30
0.0
 11
274.687451
 21
202.61497
 31
0.0
  0
ARC
  5
245
102
{ACAD_REACTORS
330
56E
102
}
330
1D
100
AcDbEntity
  8
CSLAYER1
  6
Continuous
100
AcDbCircle
 10
274.562704
 20
202.028081
 30
0.0
 40
0.6
100
AcDbArc
 50
0.0
 51
78.0
  0
LINE
  5
246
102
{ACAD_REACTORS
330
56E
102
}
330
1D
100
AcDbEntity
  8
CSLAYER1
  6
Continuous
100
AcDbLine
 10
275.162704
 20
202.028081
 30
0.0
 11
275.162704
 21
200.128081
 31
0.0
  0
LINE
  5
247
102
{ACAD_REACTORS
330
56E
102
}
330
1D
100
AcDbEntity
  8
CSLAYER1
  6
Continuous
100
AcDbLine
 10
281.262704
 20
200.128081
 30
0.0
 11
281.262704
 21
202.028081
 31
0.0
  0
LINE
  5
248
102
{ACAD_REACTORS
330
56E
102
}
330
1D
100
AcDbEntity
  8
CSLAYER1
  6
Continuous
100
AcDbLine
 10
281.862704
 20
202.028081
 30
0.0
 11
281.862704
 21
200.128081
 31
0.0
  0
LINE
  5
249
102
{ACAD_REACTORS
330
56E
102
}
330
1D
100
AcDbEntity
  8
CSLAYER1
  6
Continuous
100
AcDbLine
 10
281.862704
 20
202.028081
 30
0.0
 11
282.587704
 21
202.182185
 31
0.0
  0
LINE
  5
24A
102
{ACAD_REACTORS
330
56E
102
}
330
1D
100
AcDbEntity
  8
CSLAYER1
  6
Continuous
100
AcDbLine
 10
282.587704
 20
202.182185
 30
0.0
 11
282.587704
 21
202.795589
 31
0.0
  0
LINE
  5
24B
102
{ACAD_REACTORS
330
56E
102
}
330
1D
100
AcDbEntity
  8
CSLAYER1
  6
Continuous
100
AcDbLine
 10
282.587704
 20
202.795589
 30
0.0
 11
281.737957
 21
202.61497
 31
0.0
  0
ARC
  5
24C
102
{ACAD_REACTORS
330
56E
102
}
330
1D
100
AcDbEntity
  8
CSLAYER1
  6
Continuous
100
AcDbCircle
 10
281.862704
 20
202.028081
 30
0.0
 40
0.6
100
AcDbArc
 50
102.0
 51
180.0
  0
LINE
  5
24D
330
1D
100
AcDbEntity
  8
CSLAYER1
  6
Continuous
100
AcDbLine
 10
188.850013
 20
202.178081
 30
0.0
 11
188.850013
 21
224.678081
 31
0.0
  0
LINE
  5
24E
330
1D
100
AcDbEntity
  8
CSLAYER1
  6
Continuous
100
AcDbLine
 10
188.850013
 20
224.678081
 30
0.0
 11
179.600013
 21
225.928081
 31
0.0
  0
LINE
  5
24F
330
1D
100
AcDbEntity
  8
CSLAYER1
  6
Continuous
100
AcDbLine
 10
179.600013
 20
225.928081
 30
0.0
 11
171.050013
 21
224.378081
 31
0.0
  0
ARC
  5
250
330
1D
100
AcDbEntity
  8
CSLAYER1
  6
Continuous
100
AcDbCircle
 10
171.050013
 20
223.678081
 30
0.0
 40
0.7
100
AcDbArc
 50
90.0
 51
180.0
  0
LINE
  5
251
330
1D
100
AcDbEntity
  8
CSLAYER1
  6
Continuous
100
AcDbLine
 10
170.350013
 20
223.678081
 30
0.0
 11
170.350013
 21
203.178081
 31
0.0
  0
ARC
  5
252
330
1D
100
AcDbEntity
  8
CSLAYER1
  6
Continuous
100
AcDbCircle
 10
171.050013
 20
203.178081
 30
0.0
 40
0.7
100
AcDbArc
 50
180.0
 51
270.0
  0
LINE
  5
253
330
1D
100
AcDbEntity
  8
CSLAYER1
  6
Continuous
100
AcDbLine
 10
171.050013
 20
202.478081
 30
0.0
 11
179.600013
 21
200.928081
 31
0.0
  0
LINE
  5
254
330
1D
100
AcDbEntity
  8
CSLAYER1
  6
Continuous
100
AcDbLine
 10
179.600013
 20
200.928081
 30
0.0
 11
179.600013
 21
225.928081
 31
0.0
  0
LINE
  5
255
330
1D
100
AcDbEntity
  8
CSLAYER1
  6
Continuous
100
AcDbLine
 10
160.100013
 20
220.178081
 30
0.0
 11
157.650013
 21
220.178081
 31
0.0
  0
LINE
  5
256
330
1D
100
AcDbEntity
  8
CSLAYER1
  6
Continuous
100
AcDbLine
 10
157.650013
 20
218.428081
 30
0.0
 11
156.400013
 21
217.178081
 31
0.0
  0
LINE
  5
257
102
{ACAD_REACTORS
330
567
102
}
330
1D
100
AcDbEntity
  8
CSLAYER1
  6
Continuous
100
AcDbLine
 10
156.400013
 20
217.178081
 30
0.0
 11
149.900013
 21
217.178081
 31
0.0
  0
ARC
  5
258
102
{ACAD_REACTORS
330
567
102
}
330
1D
100
AcDbEntity
  8
CSLAYER1
  6
Continuous
100
AcDbCircle
 10
149.900013
 20
216.928081
 30
0.0
 40
0.25
100
AcDbArc
 50
90.0
 51
180.0
  0
LINE
  5
259
102
{ACAD_REACTORS
330
567
102
}
330
1D
100
AcDbEntity
  8
CSLAYER1
  6
Continuous
100
AcDbLine
 10
149.650013
 20
216.928081
 30
0.0
 11
149.650013
 21
216.803081
 31
0.0
  0
LINE
  5
25A
102
{ACAD_REACTORS
330
567
102
}
330
1D
100
AcDbEntity
  8
CSLAYER1
  6
Continuous
100
AcDbLine
 10
149.400013
 20
216.553081
 30
0.0
 11
148.300013
 21
216.553081
 31
0.0
  0
ARC
  5
25B
102
{ACAD_REACTORS
330
567
102
}
330
1D
100
AcDbEntity
  8
CSLAYER1
  6
Continuous
100
AcDbCircle
 10
148.300013
 20
216.053081
 30
0.0
 40
0.5
100
AcDbArc
 50
90.0
 51
180.0
  0
LINE
  5
25C
102
{ACAD_REACTORS
330
567
102
}
330
1D
100
AcDbEntity
  8
CSLAYER1
  6
Continuous
100
AcDbLine
 10
147.800013
 20
216.053081
 30
0.0
 11
147.800013
 21
210.803081
 31
0.0
  0
ARC
  5
25D
102
{ACAD_REACTORS
330
567
102
}
330
1D
100
AcDbEntity
  8
CSLAYER1
  6
Continuous
100
AcDbCircle
 10
148.300013
 20
210.803081
 30
0.0
 40
0.5
100
AcDbArc
 50
180.0
 51
270.0
  0
LINE
  5
25E
102
{ACAD_REACTORS
330
567
102
}
330
1D
100
AcDbEntity
  8
CSLAYER1
  6
Continuous
100
AcDbLine
 10
148.300013
 20
210.303081
 30
0.0
 11
149.400013
 21
210.303081
 31
0.0
  0
LINE
  5
25F
102
{ACAD_REACTORS
330
567
102
}
330
1D
100
AcDbEntity
  8
CSLAYER1
  6
Continuous
100
AcDbLine
 10
149.650013
 20
210.053081
 30
0.0
 11
149.650013
 21
209.928081
 31
0.0
  0
ARC
  5
260
102
{ACAD_REACTORS
330
567
102
}
330
1D
100
AcDbEntity
  8
CSLAYER1
  6
Continuous
100
AcDbCircle
 10
149.900013
 20
209.928081
 30
0.0
 40
0.25
100
AcDbArc
 50
180.0
 51
270.0
  0
LINE
  5
261
102
{ACAD_REACTORS
330
567
102
}
330
1D
100
AcDbEntity
  8
CSLAYER1
  6
Continuous
100
AcDbLine
 10
149.900013
 20
209.678081
 30
0.0
 11
156.400013
 21
209.678081
 31
0.0
  0
LINE
  5
262
330
1D
100
AcDbEntity
  8
CSLAYER1
  6
Continuous
100
AcDbLine
 10
156.400013
 20
209.678081
 30
0.0
 11
157.650013
 21
208.428081
 31
0.0
  0
LINE
  5
263
330
1D
100
AcDbEntity
  8
CSLAYER1
  6
Continuous
100
AcDbLine
 10
157.650013
 20
206.678081
 30
0.0
 11
160.100013
 21
206.678081
 31
0.0
  0
LINE
  5
264
330
1D
100
AcDbEntity
  8
CSLAYER1
  6
Continuous
100
AcDbLine
 10
161.100013
 20
212.128081
 30
0.0
 11
161.100013
 21
214.728081
 31
0.0
  0
LINE
  5
265
330
1D
100
AcDbEntity
  8
CSLAYER1
  6
Continuous
100
AcDbLine
 10
161.100013
 20
214.728081
 30
0.0
 11
161.850013
 21
214.728081
 31
0.0
  0
LINE
  5
266
330
1D
100
AcDbEntity
  8
CSLAYER1
  6
Continuous
100
AcDbLine
 10
161.850013
 20
214.728081
 30
0.0
 11
161.850013
 21
212.128081
 31
0.0
  0
LINE
  5
267
330
1D
100
AcDbEntity
  8
CSLAYER1
  6
Continuous
100
AcDbLine
 10
161.850013
 20
212.128081
 30
0.0
 11
161.100013
 21
212.128081
 31
0.0
  0
LINE
  5
268
330
1D
100
AcDbEntity
  8
CSLAYER1
  6
Continuous
100
AcDbLine
 10
157.650013
 20
201.428081
 30
0.0
 11
157.650013
 21
225.428081
 31
0.0
  0
ARC
  5
269
330
1D
100
AcDbEntity
  8
CSLAYER1
  6
Continuous
100
AcDbCircle
 10
157.150013
 20
225.428081
 30
0.0
 40
0.5
100
AcDbArc
 50
0.0
 51
90.0
  0
LINE
  5
26A
330
1D
100
AcDbEntity
  8
CSLAYER1
  6
Continuous
100
AcDbLine
 10
157.150013
 20
225.928081
 30
0.0
 11
146.550013
 21
225.928081
 31
0.0
  0
ARC
  5
26B
330
1D
100
AcDbEntity
  8
CSLAYER1
  6
Continuous
100
AcDbCircle
 10
146.550013
 20
225.428081
 30
0.0
 40
0.5
100
AcDbArc
 50
90.0
 51
180.0
  0
LINE
  5
26C
330
1D
100
AcDbEntity
  8
CSLAYER1
  6
Continuous
100
AcDbLine
 10
146.050013
 20
225.428081
 30
0.0
 11
146.050013
 21
201.428081
 31
0.0
  0
ARC
  5
26D
330
1D
100
AcDbEntity
  8
CSLAYER1
  6
Continuous
100
AcDbCircle
 10
146.550013
 20
201.428081
 30
0.0
 40
0.5
100
AcDbArc
 50
180.0
 51
270.0
  0
LINE
  5
26E
330
1D
100
AcDbEntity
  8
CSLAYER1
  6
Continuous
100
AcDbLine
 10
146.550013
 20
200.928081
 30
0.0
 11
157.150013
 21
200.928081
 31
0.0
  0
ARC
  5
26F
330
1D
100
AcDbEntity
  8
CSLAYER1
  6
Continuous
100
AcDbCircle
 10
157.150013
 20
201.428081
 30
0.0
 40
0.5
100
AcDbArc
 50
270.0
 51
0.0
  0
ARC
  5
270
102
{ACAD_REACTORS
330
567
102
}
330
1D
100
AcDbEntity
  8
CSLAYER1
  6
Continuous
100
AcDbCircle
 10
149.400013
 20
210.053081
 30
0.0
 40
0.25
100
AcDbArc
 50
0.0
 51
90.0
  0
LINE
  5
271
330
1D
100
AcDbEntity
  8
CSLAYER1
  6
Continuous
100
AcDbLine
 10
146.050013
 20
206.678081
 30
0.0
 11
143.600013
 21
206.678081
 31
0.0
  0
LINE
  5
272
330
1D
100
AcDbEntity
  8
CSLAYER1
  6
Continuous
100
AcDbLine
 10
133.350013
 20
203.178081
 30
0.0
 11
133.350013
 21
223.678081
 31
0.0
  0
ARC
  5
273
330
1D
100
AcDbEntity
  8
CSLAYER1
  6
Continuous
100
AcDbCircle
 10
132.650013
 20
223.678081
 30
0.0
 40
0.7
100
AcDbArc
 50
0.0
 51
90.0
  0
LINE
  5
274
330
1D
100
AcDbEntity
  8
CSLAYER1
  6
Continuous
100
AcDbLine
 10
132.650013
 20
224.378081
 30
0.0
 11
124.100013
 21
225.928081
 31
0.0
  0
LINE
  5
275
330
1D
100
AcDbEntity
  8
CSLAYER1
  6
Continuous
100
AcDbLine
 10
124.100013
 20
225.928081
 30
0.0
 11
124.100013
 21
200.928081
 31
0.0
  0
LINE
  5
276
330
1D
100
AcDbEntity
  8
CSLAYER1
  6
Continuous
100
AcDbLine
 10
124.100013
 20
200.928081
 30
0.0
 11
132.650013
 21
202.478081
 31
0.0
  0
ARC
  5
277
330
1D
100
AcDbEntity
  8
CSLAYER1
  6
Continuous
100
AcDbCircle
 10
132.650013
 20
203.178081
 30
0.0
 40
0.7
100
AcDbArc
 50
270.0
 51
0.0
  0
LINE
  5
278
330
1D
100
AcDbEntity
  8
CSLAYER1
  6
Continuous
100
AcDbLine
 10
124.100013
 20
200.928081
 30
0.0
 11
114.850013
 21
202.178081
 31
0.0
  0
LINE
  5
279
330
1D
100
AcDbEntity
  8
CSLAYER1
  6
Continuous
100
AcDbLine
 10
114.850013
 20
202.178081
 30
0.0
 11
114.850013
 21
224.678081
 31
0.0
  0
LINE
  5
27A
330
1D
100
AcDbEntity
  8
CSLAYER1
  6
Continuous
100
AcDbLine
 10
114.850013
 20
224.678081
 30
0.0
 11
124.100013
 21
225.928081
 31
0.0
  0
LINE
  5
27B
330
1D
100
AcDbEntity
  8
CSLAYER1
  6
Continuous
100
AcDbLine
 10
143.600013
 20
220.178081
 30
0.0
 11
146.050013
 21
220.178081
 31
0.0
  0
ARC
  5
27C
102
{ACAD_REACTORS
330
567
102
}
330
1D
100
AcDbEntity
  8
CSLAYER1
  6
Continuous
100
AcDbCircle
 10
149.400013
 20
216.803081
 30
0.0
 40
0.25
100
AcDbArc
 50
270.0
 51
0.0
  0
LINE
  5
27D
330
1D
100
AcDbEntity
  8
CSLAYER1
  6
Continuous
100
AcDbLine
 10
179.600013
 20
200.928081
 30
0.0
 11
188.850013
 21
202.178081
 31
0.0
  0
LINE
  5
27E
330
1D
100
AcDbEntity
  8
CSLAYER1
  6
Continuous
100
AcDbLine
 10
189.670318011109
 20
122.28884
 30
0.0
 11
189.170318011109
 21
122.28884
 31
0.0
  0
LINE
  5
27F
330
1D
100
AcDbEntity
  8
CSLAYER1
  6
Continuous
100
AcDbLine
 10
189.670318011109
 20
122.28884
 30
0.0
 11
189.670318011109
 21
115.28884
 31
0.0
  0
ARC
  5
280
330
1D
100
AcDbEntity
  8
CSLAYER1
  6
Continuous
100
AcDbCircle
 10
190.170318011109
 20
115.28884
 30
0.0
 40
0.5
100
AcDbArc
 50
180.0
 51
270.0
  0
LINE
  5
281
330
1D
100
AcDbEntity
  8
CSLAYER1
  6
Continuous
100
AcDbLine
 10
190.170318011109
 20
114.78884
 30
0.0
 11
194.420318011109
 21
114.78884
 31
0.0
  0
LINE
  5
282
330
1D
100
AcDbEntity
  8
CSLAYER1
  6
Continuous
100
AcDbLine
 10
195.420318011109
 20
113.78884
 30
0.0
 11
195.420318011109
 21
98.78884
 31
0.0
  0
LINE
  5
283
330
1D
100
AcDbEntity
  8
CSLAYER1
  6
Continuous
100
AcDbLine
 10
194.420318011109
 20
97.78884
 30
0.0
 11
190.170318011109
 21
97.78884
 31
0.0
  0
ARC
  5
284
330
1D
100
AcDbEntity
  8
CSLAYER1
  6
Continuous
100
AcDbCircle
 10
190.170318011109
 20
97.28884
 30
0.0
 40
0.5
100
AcDbArc
 50
90.0
 51
180.0
  0
LINE
  5
285
330
1D
100
AcDbEntity
  8
CSLAYER1
  6
Continuous
100
AcDbLine
 10
189.670318011109
 20
97.28884
 30
0.0
 11
189.670318011109
 21
90.28884
 31
0.0
  0
LINE
  5
286
330
1D
100
AcDbEntity
  8
CSLAYER1
  6
Continuous
100
AcDbLine
 10
189.670318011109
 20
90.28884
 30
0.0
 11
189.170318011109
 21
90.28884
 31
0.0
  0
ARC
  5
287
330
1D
100
AcDbEntity
  8
CSLAYER1
  6
Continuous
100
AcDbCircle
 10
194.420318011109
 20
98.78884
 30
0.0
 40
1.0
100
AcDbArc
 50
270.0
 51
0.0
  0
ARC
  5
288
330
1D
100
AcDbEntity
  8
CSLAYER1
  6
Continuous
100
AcDbCircle
 10
194.420318011109
 20
113.78884
 30
0.0
 40
1.0
100
AcDbArc
 50
0.0
 51
90.0
  0
LINE
  5
289
330
1D
100
AcDbEntity
  8
CSLAYER1
  6
Continuous
100
AcDbLine
 10
145.263696050471
 20
60.850521
 30
0.0
 11
145.263696050471
 21
55.600521
 31
0.0
  0
ARC
  5
28A
330
1D
100
AcDbEntity
  8
CSLAYER1
  6
Continuous
100
AcDbCircle
 10
144.263696050471
 20
55.600521
 30
0.0
 40
1.0
100
AcDbArc
 50
270.0
 51
0.0
  0
LINE
  5
28B
330
1D
100
AcDbEntity
  8
CSLAYER1
  6
Continuous
100
AcDbLine
 10
144.263696050471
 20
54.600521
 30
0.0
 11
135.263696050471
 21
54.600521
 31
0.0
  0
ARC
  5
28C
330
1D
100
AcDbEntity
  8
CSLAYER1
  6
Continuous
100
AcDbCircle
 10
135.263696050471
 20
55.600521
 30
0.0
 40
1.0
100
AcDbArc
 50
180.0
 51
270.0
  0
LINE
  5
28D
330
1D
100
AcDbEntity
  8
CSLAYER1
  6
Continuous
100
AcDbLine
 10
134.263696050471
 20
55.600521
 30
0.0
 11
134.263696050471
 21
60.850521
 31
0.0
  0
LINE
  5
28E
330
1D
100
AcDbEntity
  8
CSLAYER1
  6
Continuous
100
AcDbLine
 10
134.263696050471
 20
60.350521
 30
0.0
 11
145.263696050471
 21
60.350521
 31
0.0
  0
LINE
  5
28F
330
1D
100
AcDbEntity
  8
CSLAYER1
  6
Continuous
100
AcDbLine
 10
142.263696050471
 20
60.350521
 30
0.0
 11
142.263696050471
 21
60.850521
 31
0.0
  0
LINE
  5
290
330
1D
100
AcDbEntity
  8
CSLAYER1
  6
Continuous
100
AcDbLine
 10
137.263696050471
 20
60.850521
 30
0.0
 11
137.263696050471
 21
60.350521
 31
0.0
  0
LINE
  5
291
330
1D
100
AcDbEntity
  8
CSLAYER1
  6
Continuous
100
AcDbLine
 10
263.962704
 20
119.790226
 30
0.0
 11
263.962704
 21
131.790226
 31
0.0
  0
LINE
  5
292
330
1D
100
AcDbEntity
  8
CSLAYER1
  6
Continuous
100
AcDbLine
 10
263.962704
 20
131.790226
 30
0.0
 11
292.462704
 21
131.790226
 31
0.0
  0
LINE
  5
293
330
1D
100
AcDbEntity
  8
CSLAYER1
  6
Continuous
100
AcDbLine
 10
292.462704
 20
131.790226
 30
0.0
 11
292.462704
 21
119.790226
 31
0.0
  0
LINE
  5
294
330
1D
100
AcDbEntity
  8
CSLAYER1
  6
Continuous
100
AcDbLine
 10
292.462704
 20
119.790226
 30
0.0
 11
263.962704
 21
119.790226
 31
0.0
  0
LINE
  5
295
330
1D
100
AcDbEntity
  8
CSLAYER1
  6
Continuous
100
AcDbLine
 10
263.962704
 20
183.428081
 30
0.0
 11
263.962704
 21
184.028081
 31
0.0
  0
LINE
  5
296
330
1D
100
AcDbEntity
  8
CSLAYER1
  6
Continuous
100
AcDbLine
 10
263.962704
 20
184.028081
 30
0.0
 11
292.462704
 21
184.028081
 31
0.0
  0
LINE
  5
297
330
1D
100
AcDbEntity
  8
CSLAYER1
  6
Continuous
100
AcDbLine
 10
292.462704
 20
184.028081
 30
0.0
 11
292.462704
 21
183.428081
 31
0.0
  0
LINE
  5
298
330
1D
100
AcDbEntity
  8
CSLAYER1
  6
Continuous
100
AcDbLine
 10
292.462704
 20
183.428081
 30
0.0
 11
263.962704
 21
183.428081
 31
0.0
  0
LINE
  5
299
102
{ACAD_REACTORS
330
56E
102
}
330
1D
100
AcDbEntity
  8
CSLAYER1
  6
Continuous
100
AcDbLine
 10
276.962704
 20
200.128081
 30
0.0
 11
276.962704
 21
201.303081
 31
0.0
  0
LINE
  5
29A
102
{ACAD_REACTORS
330
56E
102
}
330
1D
100
AcDbEntity
  8
CSLAYER1
  6
Continuous
100
AcDbLine
 10
276.962704
 20
201.303081
 30
0.0
 11
276.062704
 21
201.303081
 31
0.0
  0
LINE
  5
29B
102
{ACAD_REACTORS
330
56E
102
}
330
1D
100
AcDbEntity
  8
CSLAYER1
  6
Continuous
100
AcDbLine
 10
276.062704
 20
201.303081
 30
0.0
 11
276.062704
 21
202.303081
 31
0.0
  0
ARC
  5
29C
102
{ACAD_REACTORS
330
56E
102
}
330
1D
100
AcDbEntity
  8
CSLAYER1
  6
Continuous
100
AcDbCircle
 10
278.212704
 20
207.904644
 30
0.0
 40
6.0
100
AcDbArc
 50
249.002124
 51
290.997876
  0
LINE
  5
29D
102
{ACAD_REACTORS
330
56E
102
}
330
1D
100
AcDbEntity
  8
CSLAYER1
  6
Continuous
100
AcDbLine
 10
280.362704
 20
202.303081
 30
0.0
 11
280.362704
 21
201.303081
 31
0.0
  0
LINE
  5
29E
102
{ACAD_REACTORS
330
56E
102
}
330
1D
100
AcDbEntity
  8
CSLAYER1
  6
Continuous
100
AcDbLine
 10
280.362704
 20
201.303081
 30
0.0
 11
279.462704
 21
201.303081
 31
0.0
  0
LINE
  5
29F
102
{ACAD_REACTORS
330
56E
102
}
330
1D
100
AcDbEntity
  8
CSLAYER1
  6
Continuous
100
AcDbLine
 10
279.462704
 20
201.303081
 30
0.0
 11
279.462704
 21
200.128081
 31
0.0
  0
LINE
  5
2A0
330
1D
100
AcDbEntity
  8
CSLAYER1
  6
Continuous
100
AcDbLine
 10
170.350013
 20
206.683344
 30
0.0
 11
164.855509
 21
204.792823
 31
0.0
  0
ARC
  5
2A1
330
1D
100
AcDbEntity
  8
CSLAYER1
  6
Continuous
100
AcDbCircle
 10
165.180863
 20
203.847231
 30
0.0
 40
1.0
100
AcDbArc
 50
108.987053
 51
171.579626
  0
LINE
  5
2A2
330
1D
100
AcDbEntity
  8
CSLAYER1
  6
Continuous
100
AcDbLine
 10
164.191643
 20
205.942877
 30
0.0
 11
164.191643
 21
221.156052
 31
0.0
  0
LINE
  5
2A3
330
1D
100
AcDbEntity
  8
CSLAYER1
  6
Continuous
100
AcDbLine
 10
164.855509
 20
222.06334
 30
0.0
 11
170.350013
 21
220.172819
 31
0.0
  0
LINE
  5
2A4
330
1D
100
AcDbEntity
  8
CSLAYER1
  6
Continuous
100
AcDbLine
 10
170.350013
 20
214.053081
 30
0.0
 11
167.625013
 21
214.053081
 31
0.0
  0
ARC
  5
2A5
330
1D
100
AcDbEntity
  8
CSLAYER1
  6
Continuous
100
AcDbCircle
 10
167.625013
 20
213.428081
 30
0.0
 40
0.625
100
AcDbArc
 50
90.0
 51
270.0
  0
LINE
  5
2A6
330
1D
100
AcDbEntity
  8
CSLAYER1
  6
Continuous
100
AcDbLine
 10
167.625013
 20
212.803081
 30
0.0
 11
170.350013
 21
212.803081
 31
0.0
  0
ARC
  5
2A7
330
1D
100
AcDbEntity
  8
CSLAYER1
  6
Continuous
100
AcDbCircle
 10
122.64439
 20
216.712235
 30
0.0
 40
42.0
100
AcDbArc
 50
8.420374
 51
16.981951
  0
ARC
  5
2A8
330
1D
100
AcDbEntity
  8
CSLAYER1
  6
Continuous
100
AcDbCircle
 10
162.645686
 20
228.928081
 30
0.0
 40
0.175
100
AcDbArc
 50
16.981951
 51
90.0
  0
LINE
  5
2A9
330
1D
100
AcDbEntity
  8
CSLAYER1
  6
Continuous
100
AcDbLine
 10
162.645686
 20
229.103081
 30
0.0
 11
162.813056
 21
197.876969
 31
0.0
  0
ARC
  5
2AA
330
1D
100
AcDbEntity
  8
CSLAYER1
  6
Continuous
100
AcDbCircle
 10
122.64439
 20
210.143928
 30
0.0
 40
42.0
100
AcDbArc
 50
343.018049
 51
351.579626
  0
ARC
  5
2AB
330
1D
100
AcDbEntity
  8
CSLAYER1
  6
Continuous
100
AcDbCircle
 10
162.645686
 20
197.928081
 30
0.0
 40
0.175
100
AcDbArc
 50
270.0
 51
343.018049
  0
LINE
  5
2AC
330
1D
100
AcDbEntity
  8
CSLAYER1
  6
Continuous
100
AcDbLine
 10
162.645686
 20
197.753081
 30
0.0
 11
160.100013
 21
197.753081
 31
0.0
  0
LINE
  5
2AD
330
1D
100
AcDbEntity
  8
CSLAYER1
  6
Continuous
100
AcDbLine
 10
160.100013
 20
197.753081
 30
0.0
 11
160.100013
 21
229.103081
 31
0.0
  0
LINE
  5
2AE
330
1D
100
AcDbEntity
  8
CSLAYER1
  6
Continuous
100
AcDbLine
 10
160.100013
 20
229.103081
 30
0.0
 11
162.645686
 21
229.103081
 31
0.0
  0
ARC
  5
2AF
330
1D
100
AcDbEntity
  8
CSLAYER1
  6
Continuous
100
AcDbCircle
 10
165.180863
 20
223.008932
 30
0.0
 40
1.0
100
AcDbArc
 50
188.420374
 51
251.012947
  0
LINE
  5
2B0
102
{ACAD_REACTORS
330
567
102
}
330
1D
100
AcDbEntity
  8
CSLAYER1
  6
Continuous
100
AcDbLine
 10
156.650013
 20
217.428081
 30
0.0
 11
156.650013
 21
209.428081
 31
0.0
  0
LINE
  5
2B1
102
{ACAD_REACTORS
330
567
102
}
330
1D
100
AcDbEntity
  8
CSLAYER1
  6
Continuous
100
AcDbLine
 10
156.650013
 20
211.178081
 30
0.0
 11
155.900013
 21
212.053081
 31
0.0
  0
LINE
  5
2B2
102
{ACAD_REACTORS
330
567
102
}
330
1D
100
AcDbEntity
  8
CSLAYER1
  6
Continuous
100
AcDbLine
 10
155.900013
 20
212.053081
 30
0.0
 11
151.300013
 21
212.053081
 31
0.0
  0
ARC
  5
2B3
102
{ACAD_REACTORS
330
567
102
}
330
1D
100
AcDbEntity
  8
CSLAYER1
  6
Continuous
100
AcDbCircle
 10
151.300013
 20
212.203081
 30
0.0
 40
0.15
100
AcDbArc
 50
180.0
 51
270.0
  0
LINE
  5
2B4
102
{ACAD_REACTORS
330
567
102
}
330
1D
100
AcDbEntity
  8
CSLAYER1
  6
Continuous
100
AcDbLine
 10
151.150013
 20
212.203081
 30
0.0
 11
151.150013
 21
214.653081
 31
0.0
  0
ARC
  5
2B5
102
{ACAD_REACTORS
330
567
102
}
330
1D
100
AcDbEntity
  8
CSLAYER1
  6
Continuous
100
AcDbCircle
 10
151.300013
 20
214.653081
 30
0.0
 40
0.15
100
AcDbArc
 50
90.0
 51
180.0
  0
LINE
  5
2B6
102
{ACAD_REACTORS
330
567
102
}
330
1D
100
AcDbEntity
  8
CSLAYER1
  6
Continuous
100
AcDbLine
 10
151.300013
 20
214.803081
 30
0.0
 11
155.900013
 21
214.803081
 31
0.0
  0
LINE
  5
2B7
102
{ACAD_REACTORS
330
567
102
}
330
1D
100
AcDbEntity
  8
CSLAYER1
  6
Continuous
100
AcDbLine
 10
155.900013
 20
214.803081
 30
0.0
 11
156.650013
 21
215.678081
 31
0.0
  0
LINE
  5
2B8
102
{ACAD_REACTORS
330
567
102
}
330
1D
100
AcDbEntity
  8
CSLAYER1
  6
Continuous
100
AcDbLine
 10
149.650013
 20
216.803081
 30
0.0
 11
149.650013
 21
210.053081
 31
0.0
  0
LINE
  5
2B9
330
1D
100
AcDbEntity
  8
CSLAYER1
  6
Continuous
100
AcDbLine
 10
139.508383
 20
205.942877
 30
0.0
 11
139.508383
 21
221.156052
 31
0.0
  0
LINE
  5
2BA
330
1D
100
AcDbEntity
  8
CSLAYER1
  6
Continuous
100
AcDbLine
 10
138.844517
 20
222.06334
 30
0.0
 11
133.350013
 21
220.172819
 31
0.0
  0
ARC
  5
2BB
330
1D
100
AcDbEntity
  8
CSLAYER1
  6
Continuous
100
AcDbCircle
 10
138.519162
 20
223.008932
 30
0.0
 40
1.0
100
AcDbArc
 50
288.987053
 51
351.579626
  0
ARC
  5
2BC
330
1D
100
AcDbEntity
  8
CSLAYER1
  6
Continuous
100
AcDbCircle
 10
181.055636
 20
216.712235
 30
0.0
 40
42.0
100
AcDbArc
 50
163.018049
 51
171.579626
  0
LINE
  5
2BD
330
1D
100
AcDbEntity
  8
CSLAYER1
  6
Continuous
100
AcDbLine
 10
140.88697
 20
228.979194
 30
0.0
 11
140.88697
 21
197.876969
 31
0.0
  0
ARC
  5
2BE
330
1D
100
AcDbEntity
  8
CSLAYER1
  6
Continuous
100
AcDbCircle
 10
141.05434
 20
197.928081
 30
0.0
 40
0.175
100
AcDbArc
 50
196.981951
 51
270.0
  0
LINE
  5
2BF
330
1D
100
AcDbEntity
  8
CSLAYER1
  6
Continuous
100
AcDbLine
 10
141.05434
 20
197.753081
 30
0.0
 11
143.600013
 21
197.753081
 31
0.0
  0
LINE
  5
2C0
330
1D
100
AcDbEntity
  8
CSLAYER1
  6
Continuous
100
AcDbLine
 10
143.600013
 20
197.753081
 30
0.0
 11
143.600013
 21
229.103081
 31
0.0
  0
LINE
  5
2C1
330
1D
100
AcDbEntity
  8
CSLAYER1
  6
Continuous
100
AcDbLine
 10
143.600013
 20
229.103081
 30
0.0
 11
141.05434
 21
229.103081
 31
0.0
  0
ARC
  5
2C2
330
1D
100
AcDbEntity
  8
CSLAYER1
  6
Continuous
100
AcDbCircle
 10
141.05434
 20
228.928081
 30
0.0
 40
0.175
100
AcDbArc
 50
90.0
 51
163.018049
  0
LINE
  5
2C3
330
1D
100
AcDbEntity
  8
CSLAYER1
  6
Continuous
100
AcDbLine
 10
133.350013
 20
206.683344
 30
0.0
 11
138.844517
 21
204.792823
 31
0.0
  0
ARC
  5
2C4
330
1D
100
AcDbEntity
  8
CSLAYER1
  6
Continuous
100
AcDbCircle
 10
138.519162
 20
203.847231
 30
0.0
 40
1.0
100
AcDbArc
 50
8.420374
 51
71.012947
  0
ARC
  5
2C5
330
1D
100
AcDbEntity
  8
CSLAYER1
  6
Continuous
100
AcDbCircle
 10
181.055636
 20
210.143928
 30
0.0
 40
42.0
100
AcDbArc
 50
188.420374
 51
196.981951
  0
TEXT
  5
2D3
330
1D
100
AcDbEntity
  8
CSLAYER10
 62
     3
100
AcDbText
 10
356.15
 20
13.281871
 30
0.0
 40
2.7
  1
 
 41
1.666666666667
  7
FX_FONT
 72
     5
 11
358.85
 21
13.281871
 31
0.0
100
AcDbText
  0
POINT
  5
2F1
330
1D
100
AcDbEntity
  8
CSLAYER10
 62
     3
370
    15
100
AcDbPoint
 10
145.385541563727
 20
47.201077521831
 30
0.0
 50
180.0
  0
TEXT
  5
2FD
330
1D
100
AcDbEntity
  8
CSLAYER10
 62
     3
370
    15
100
AcDbText
 10
148.300236823749
 20
246.201170118781
 30
0.0
 40
3.0
  1
取付扉厚
 41
0.514705882353
  7
FX_FONT
 72
     5
 11
155.300236823749
 21
246.201170118781
 31
0.0
100
AcDbText
  0
LINE
  5
2FE
330
1D
100
AcDbEntity
  8
CSLAYER10
  6
Continuous
 62
     3
370
    15
100
AcDbLine
 10
197.488057011109
 20
106.28884
 30
0.0
 11
184.891719011109
 21
106.28884
 31
0.0
  0
LINE
  5
2FF
330
1D
100
AcDbEntity
  8
CSLAYER10
  6
Continuous
 62
     3
370
    15
100
AcDbLine
 10
148.632060050471
 20
106.28884
 30
0.0
 11
125.588021050471
 21
106.28884
 31
0.0
  0
LINE
  5
300
330
1D
100
AcDbEntity
  8
CSLAYER10
  6
Continuous
 62
     3
370
    15
100
AcDbLine
 10
136.531288050471
 20
119.78884
 30
0.0
 11
143.463967050471
 21
119.78884
 31
0.0
  0
LINE
  5
301
330
1D
100
AcDbEntity
  8
CSLAYER10
  6
Continuous
 62
     3
370
    15
100
AcDbLine
 10
139.763696050471
 20
124.868302
 30
0.0
 11
139.763696050471
 21
86.382111
 31
0.0
  0
LINE
  5
302
330
1D
100
AcDbEntity
  8
CSLAYER10
  6
Continuous
 62
     3
100
AcDbLine
 10
136.531288050471
 20
92.78884
 30
0.0
 11
143.463967050471
 21
92.78884
 31
0.0
  0
LINE
  5
303
330
1D
100
AcDbEntity
  8
CSLAYER10
  6
Continuous
 62
     3
370
    15
100
AcDbLine
 10
139.763696050471
 20
64.356113
 30
0.0
 11
139.763696050471
 21
53.906891
 31
0.0
  0
LINE
  5
321
330
1D
100
AcDbEntity
  8
CSLAYER10
  6
Continuous
 62
     3
370
    15
100
AcDbLine
 10
262.0425035
 20
125.790226
 30
0.0
 11
294.3829045
 21
125.790226
 31
0.0
  0
LINE
  5
322
330
1D
100
AcDbEntity
  8
CSLAYER10
  6
Continuous
 62
     3
370
    15
100
AcDbLine
 10
288.462704
 20
122.344319
 30
0.0
 11
288.462704
 21
129.421368
 31
0.0
  0
LINE
  5
323
330
1D
100
AcDbEntity
  8
CSLAYER10
  6
Continuous
 62
     3
370
    15
100
AcDbLine
 10
278.212704
 20
134.003685
 30
0.0
 11
278.212704
 21
118.48094
 31
0.0
  0
LINE
  5
324
330
1D
100
AcDbEntity
  8
CSLAYER10
  6
Continuous
 62
     3
370
    15
100
AcDbLine
 10
267.962704
 20
122.572611
 30
0.0
 11
267.962704
 21
129.421368
 31
0.0
  0
LINE
  5
325
330
1D
100
AcDbEntity
  8
CSLAYER10
  6
Continuous
 62
     3
370
    15
100
AcDbLine
 10
278.212704
 20
176.870078
 30
0.0
 11
278.212704
 21
188.357037
 31
0.0
  0
LINE
  5
326
102
{ACAD_REACTORS
330
56E
102
}
330
1D
100
AcDbEntity
  8
CSLAYER10
  6
Continuous
 62
     3
370
    15
100
AcDbLine
 10
278.212704
 20
194.36439
 30
0.0
 11
278.212704
 21
225.781473
 31
0.0
  0
CIRCLE
  5
327
102
{ACAD_REACTORS
330
56E
102
}
330
1D
100
AcDbEntity
  8
CSLAYER10
  6
PHANTOM
 62
     3
 48
0.5
370
    15
100
AcDbCircle
 10
278.212704
 20
213.428081
 30
0.0
 40
13.5
  0
LINE
  5
328
102
{ACAD_REACTORS
330
56E
102
}
330
1D
100
AcDbEntity
  8
CSLAYER10
  6
Continuous
 62
     3
370
    15
100
AcDbLine
 10
293.511651
 20
213.428081
 30
0.0
 11
263.962704
 21
213.428081
 31
0.0
  0
LINE
  5
329
330
1D
100
AcDbEntity
  8
CSLAYER10
  6
Continuous
 62
     3
370
    15
100
AcDbLine
 10
268.187704
 20
186.2098
 30
0.0
 11
268.187704
 21
182.356652
 31
0.0
  0
LINE
  5
32A
330
1D
100
AcDbEntity
  8
CSLAYER10
  6
Continuous
 62
     3
370
    15
100
AcDbLine
 10
288.237704
 20
182.356652
 30
0.0
 11
288.237704
 21
185.872595
 31
0.0
  0
LINE
  5
32B
330
1D
100
AcDbEntity
  8
CSLAYER10
  6
Continuous
 62
     3
370
    15
100
AcDbLine
 10
192.694652
 20
213.428081
 30
0.0
 11
179.013281
 21
213.428081
 31
0.0
  0
LINE
  5
32C
102
{ACAD_REACTORS
330
567
102
}
330
1D
100
AcDbEntity
  8
CSLAYER10
  6
Continuous
 62
     3
370
    15
100
AcDbLine
 10
171.408532
 20
213.428081
 30
0.0
 11
111.956272
 21
213.428081
 31
0.0
  0
LINE
  5
32D
102
{ACAD_REACTORS
330
567
102
}
330
1D
100
AcDbEntity
  8
CSLAYER10
  6
Continuous
 62
     3
370
    15
100
AcDbLine
 10
151.850013
 20
196.60901
 30
0.0
 11
151.850013
 21
233.6469
 31
0.0
  0
CIRCLE
  5
32E
102
{ACAD_REACTORS
330
567
102
}
330
1D
100
AcDbEntity
  8
CSLAYER10
  6
PHANTOM
 62
     3
 48
0.3
370
    15
100
AcDbCircle
 10
151.850013
 20
213.428081
 30
0.0
 40
5.5
  0
TEXT
  5
379
330
1D
100
AcDbEntity
  8
CSLAYER10
 62
     3
370
    15
100
AcDbText
 10
96.850014
 20
210.803085
 30
0.0
 40
3.0
  1
%%c63
 50
90.0
 41
0.616136919315
  7
FX_FONT
 72
     5
 11
96.850014
 21
216.053085
 31
0.0
100
AcDbText
  0
LINE
  5
37A
330
1D
100
AcDbEntity
  8
CSLAYER10
  6
Continuous
 62
     3
370
    15
100
AcDbLine
 10
140.55434
 20
197.753081
 30
0.0
 11
96.850013
 21
197.753081
 31
0.0
  0
LINE
  5
37B
330
1D
100
AcDbEntity
  8
CSLAYER10
  6
Continuous
 62
     3
370
    15
100
AcDbLine
 10
140.55434
 20
229.103081
 30
0.0
 11
96.850013
 21
229.103081
 31
0.0
  0
LINE
  5
37C
330
1D
100
AcDbEntity
  8
CSLAYER10
  6
Continuous
 62
     3
370
    15
100
AcDbLine
 10
97.350013
 20
197.753081
 30
0.0
 11
97.350013
 21
229.103081
 31
0.0
  0
LINE
  5
37D
330
1D
100
AcDbEntity
  8
CSLAYER10
  6
Continuous
 62
     3
370
    15
100
AcDbLine
 10
97.350013
 20
197.753081
 30
0.0
 11
96.832375
 21
199.684933
 31
0.0
  0
LINE
  5
37E
330
1D
100
AcDbEntity
  8
CSLAYER10
  6
Continuous
 62
     3
370
    15
100
AcDbLine
 10
97.350013
 20
197.753081
 30
0.0
 11
97.867651
 21
199.684933
 31
0.0
  0
LINE
  5
37F
330
1D
100
AcDbEntity
  8
CSLAYER10
  6
Continuous
 62
     3
370
    15
100
AcDbLine
 10
97.350013
 20
229.103081
 30
0.0
 11
96.832375
 21
227.17123
 31
0.0
  0
LINE
  5
380
330
1D
100
AcDbEntity
  8
CSLAYER10
  6
Continuous
 62
     3
370
    15
100
AcDbLine
 10
97.350013
 20
229.103081
 30
0.0
 11
97.867651
 21
227.17123
 31
0.0
  0
TEXT
  5
381
330
1D
100
AcDbEntity
  8
CSLAYER10
 62
     3
370
    15
100
AcDbText
 10
104.350014
 20
210.803085
 30
0.0
 40
3.0
  1
%%c50
 50
90.0
 41
0.629685157421
  7
FX_FONT
 72
     5
 11
104.350014
 21
216.053085
 31
0.0
100
AcDbText
  0
LINE
  5
382
330
1D
100
AcDbEntity
  8
CSLAYER10
  6
Continuous
 62
     3
370
    15
100
AcDbLine
 10
123.600013
 20
200.928081
 30
0.0
 11
104.350013
 21
200.928081
 31
0.0
  0
LINE
  5
383
330
1D
100
AcDbEntity
  8
CSLAYER10
  6
Continuous
 62
     3
370
    15
100
AcDbLine
 10
123.600013
 20
225.928081
 30
0.0
 11
104.350013
 21
225.928081
 31
0.0
  0
LINE
  5
384
330
1D
100
AcDbEntity
  8
CSLAYER10
  6
Continuous
 62
     3
370
    15
100
AcDbLine
 10
104.850013
 20
200.928081
 30
0.0
 11
104.850013
 21
225.928081
 31
0.0
  0
LINE
  5
385
330
1D
100
AcDbEntity
  8
CSLAYER10
  6
Continuous
 62
     3
370
    15
100
AcDbLine
 10
104.850013
 20
200.928081
 30
0.0
 11
104.332375
 21
202.859933
 31
0.0
  0
LINE
  5
386
330
1D
100
AcDbEntity
  8
CSLAYER10
  6
Continuous
 62
     3
370
    15
100
AcDbLine
 10
104.850013
 20
200.928081
 30
0.0
 11
105.367651
 21
202.859933
 31
0.0
  0
LINE
  5
387
330
1D
100
AcDbEntity
  8
CSLAYER10
  6
Continuous
 62
     3
370
    15
100
AcDbLine
 10
104.850013
 20
225.928081
 30
0.0
 11
104.332375
 21
223.99623
 31
0.0
  0
LINE
  5
388
330
1D
100
AcDbEntity
  8
CSLAYER10
  6
Continuous
 62
     3
370
    15
100
AcDbLine
 10
104.850013
 20
225.928081
 30
0.0
 11
105.367651
 21
223.99623
 31
0.0
  0
TEXT
  5
389
330
1D
100
AcDbEntity
  8
CSLAYER10
 62
     3
370
    15
100
AcDbText
 10
168.774580362341
 20
104.583468312689
 30
0.0
 40
3.0
  1
70
 50
90.0
 41
0.658307210031
  7
FX_FONT
 72
     5
 11
168.774580362341
 21
108.083468312689
 31
0.0
100
AcDbText
  0
LINE
  5
38A
330
1D
100
AcDbEntity
  8
CSLAYER10
  6
Continuous
 62
     3
370
    15
100
AcDbLine
 10
146.763696050471
 20
123.66384
 30
0.0
 11
169.763696050471
 21
123.66384
 31
0.0
  0
LINE
  5
38B
330
1D
100
AcDbEntity
  8
CSLAYER10
  6
Continuous
 62
     3
370
    15
100
AcDbLine
 10
146.763696050471
 20
88.91384
 30
0.0
 11
169.763696050471
 21
88.91384
 31
0.0
  0
LINE
  5
38C
330
1D
100
AcDbEntity
  8
CSLAYER10
  6
Continuous
 62
     3
370
    15
100
AcDbLine
 10
169.263696050471
 20
123.66384
 30
0.0
 11
169.263696050471
 21
88.91384
 31
0.0
  0
LINE
  5
38D
330
1D
100
AcDbEntity
  8
CSLAYER10
  6
Continuous
 62
     3
370
    15
100
AcDbLine
 10
169.263696050471
 20
123.66384
 30
0.0
 11
169.781334050471
 21
121.731988
 31
0.0
  0
LINE
  5
38E
330
1D
100
AcDbEntity
  8
CSLAYER10
  6
Continuous
 62
     3
370
    15
100
AcDbLine
 10
169.263696050471
 20
123.66384
 30
0.0
 11
168.746058050471
 21
121.731988
 31
0.0
  0
LINE
  5
38F
330
1D
100
AcDbEntity
  8
CSLAYER10
  6
Continuous
 62
     3
370
    15
100
AcDbLine
 10
169.263696050471
 20
88.91384
 30
0.0
 11
169.781334050471
 21
90.845691
 31
0.0
  0
LINE
  5
390
330
1D
100
AcDbEntity
  8
CSLAYER10
  6
Continuous
 62
     3
370
    15
100
AcDbLine
 10
169.263696050471
 20
88.91384
 30
0.0
 11
168.746058050471
 21
90.845691
 31
0.0
  0
TEXT
  5
391
330
1D
100
AcDbEntity
  8
CSLAYER10
 62
     3
370
    15
100
AcDbText
 10
160.928540449773
 20
104.856286800023
 30
0.0
 40
3.0
  1
54
 50
90.0
 41
0.633962264151
  7
FX_FONT
 72
     5
 11
160.928540449773
 21
108.356286800023
 31
0.0
100
AcDbText
  0
LINE
  5
392
330
1D
100
AcDbEntity
  8
CSLAYER10
  6
Continuous
 62
     3
370
    15
100
AcDbLine
 10
144.059832050471
 20
119.78884
 30
0.0
 11
162.263696050471
 21
119.78884
 31
0.0
  0
LINE
  5
393
330
1D
100
AcDbEntity
  8
CSLAYER10
  6
Continuous
 62
     3
370
    15
100
AcDbLine
 10
144.059832050471
 20
92.78884
 30
0.0
 11
162.263696050471
 21
92.78884
 31
0.0
  0
LINE
  5
394
330
1D
100
AcDbEntity
  8
CSLAYER10
  6
Continuous
 62
     3
370
    15
100
AcDbLine
 10
161.763696050471
 20
119.78884
 30
0.0
 11
161.763696050471
 21
92.78884
 31
0.0
  0
LINE
  5
395
330
1D
100
AcDbEntity
  8
CSLAYER10
  6
Continuous
 62
     3
370
    15
100
AcDbLine
 10
161.763696050471
 20
119.78884
 30
0.0
 11
162.281334050471
 21
117.856988
 31
0.0
  0
LINE
  5
396
330
1D
100
AcDbEntity
  8
CSLAYER10
  6
Continuous
 62
     3
370
    15
100
AcDbLine
 10
161.763696050471
 20
119.78884
 30
0.0
 11
161.246058050471
 21
117.856988
 31
0.0
  0
LINE
  5
397
330
1D
100
AcDbEntity
  8
CSLAYER10
  6
Continuous
 62
     3
370
    15
100
AcDbLine
 10
161.763696050471
 20
92.78884
 30
0.0
 11
162.281334050471
 21
94.720691
 31
0.0
  0
LINE
  5
398
330
1D
100
AcDbEntity
  8
CSLAYER10
  6
Continuous
 62
     3
370
    15
100
AcDbLine
 10
161.763696050471
 20
92.78884
 30
0.0
 11
161.246058050471
 21
94.720691
 31
0.0
  0
TEXT
  5
399
330
1D
100
AcDbEntity
  8
CSLAYER10
 62
     3
370
    15
100
AcDbText
 10
153.423523646372
 20
104.515263690855
 30
0.0
 40
3.0
  1
30
 50
90.0
 41
0.658307210031
  7
FX_FONT
 72
     5
 11
153.423523646372
 21
108.015263690855
 31
0.0
100
AcDbText
  0
LINE
  5
39A
330
1D
100
AcDbEntity
  8
CSLAYER10
  6
Continuous
 62
     3
370
    15
100
AcDbLine
 10
143.513696050471
 20
113.78884
 30
0.0
 11
154.763696050471
 21
113.78884
 31
0.0
  0
LINE
  5
39B
330
1D
100
AcDbEntity
  8
CSLAYER10
  6
Continuous
 62
     3
370
    15
100
AcDbLine
 10
143.513696050471
 20
98.78884
 30
0.0
 11
154.763696050471
 21
98.78884
 31
0.0
  0
LINE
  5
39C
330
1D
100
AcDbEntity
  8
CSLAYER10
  6
Continuous
 62
     3
370
    15
100
AcDbLine
 10
154.263696050471
 20
113.78884
 30
0.0
 11
154.263696050471
 21
98.78884
 31
0.0
  0
LINE
  5
39D
330
1D
100
AcDbEntity
  8
CSLAYER10
  6
Continuous
 62
     3
370
    15
100
AcDbLine
 10
154.263696050471
 20
113.78884
 30
0.0
 11
154.781334050471
 21
111.856988
 31
0.0
  0
LINE
  5
39E
330
1D
100
AcDbEntity
  8
CSLAYER10
  6
Continuous
 62
     3
370
    15
100
AcDbLine
 10
154.263696050471
 20
113.78884
 30
0.0
 11
153.746058050471
 21
111.856988
 31
0.0
  0
LINE
  5
39F
330
1D
100
AcDbEntity
  8
CSLAYER10
  6
Continuous
 62
     3
370
    15
100
AcDbLine
 10
154.263696050471
 20
98.78884
 30
0.0
 11
154.781334050471
 21
100.720691
 31
0.0
  0
LINE
  5
3A0
330
1D
100
AcDbEntity
  8
CSLAYER10
  6
Continuous
 62
     3
370
    15
100
AcDbLine
 10
154.263696050471
 20
98.78884
 30
0.0
 11
153.746058050471
 21
100.720691
 31
0.0
  0
TEXT
  5
3A1
330
1D
100
AcDbEntity
  8
CSLAYER10
 62
     3
370
    15
100
AcDbText
 10
118.220810642558
 20
90.600764601866
 30
0.0
 40
3.0
  1
16
 50
90.0
 41
0.636363636364
  7
FX_FONT
 72
     5
 11
118.220810642558
 21
94.100764601866
 31
0.0
100
AcDbText
  0
LINE
  5
3A2
330
1D
100
AcDbEntity
  8
CSLAYER10
  6
Continuous
 62
     3
370
    15
100
AcDbLine
 10
132.802795050471
 20
123.66384
 30
0.0
 11
119.263696050471
 21
123.66384
 31
0.0
  0
LINE
  5
3A3
330
1D
100
AcDbEntity
  8
CSLAYER10
  6
Continuous
 62
     3
370
    15
100
AcDbLine
 10
128.320986050471
 20
115.739226
 30
0.0
 11
119.263696050471
 21
115.739226
 31
0.0
  0
LINE
  5
3A4
330
1D
100
AcDbEntity
  8
CSLAYER10
  6
Continuous
 62
     3
370
    15
100
AcDbLine
 10
119.763696050471
 20
123.66384
 30
0.0
 11
119.763696050471
 21
115.739226
 31
0.0
  0
LINE
  5
3A5
330
1D
100
AcDbEntity
  8
CSLAYER10
  6
Continuous
 62
     3
370
    15
100
AcDbLine
 10
119.763696050471
 20
123.66384
 30
0.0
 11
120.281334050471
 21
121.731988
 31
0.0
  0
LINE
  5
3A6
330
1D
100
AcDbEntity
  8
CSLAYER10
  6
Continuous
 62
     3
370
    15
100
AcDbLine
 10
119.763696050471
 20
123.66384
 30
0.0
 11
119.246058050471
 21
121.731988
 31
0.0
  0
LINE
  5
3A7
330
1D
100
AcDbEntity
  8
CSLAYER10
  6
Continuous
 62
     3
370
    15
100
AcDbLine
 10
119.763696050471
 20
115.739226
 30
0.0
 11
120.281334050471
 21
117.671078
 31
0.0
  0
LINE
  5
3A8
330
1D
100
AcDbEntity
  8
CSLAYER10
  6
Continuous
 62
     3
370
    15
100
AcDbLine
 10
119.763696050471
 20
115.739226
 30
0.0
 11
119.246058050471
 21
117.671078
 31
0.0
  0
TEXT
  5
3A9
330
1D
100
AcDbEntity
  8
CSLAYER10
 62
     3
370
    15
100
AcDbText
 10
118.220810642558
 20
104.038264601866
 30
0.0
 40
3.0
  1
38
 50
90.0
 41
0.636363636364
  7
FX_FONT
 72
     5
 11
118.220810642558
 21
107.538264601866
 31
0.0
100
AcDbText
  0
LINE
  5
3AA
330
1D
100
AcDbEntity
  8
CSLAYER10
  6
Continuous
 62
     3
370
    15
100
AcDbLine
 10
128.855773050471
 20
96.78884
 30
0.0
 11
119.263696050471
 21
96.78884
 31
0.0
  0
LINE
  5
3AB
330
1D
100
AcDbEntity
  8
CSLAYER10
  6
Continuous
 62
     3
370
    15
100
AcDbLine
 10
119.763696050471
 20
115.739226
 30
0.0
 11
119.763696050471
 21
96.78884
 31
0.0
  0
LINE
  5
3AC
330
1D
100
AcDbEntity
  8
CSLAYER10
  6
Continuous
 62
     3
370
    15
100
AcDbLine
 10
119.763696050471
 20
115.739226
 30
0.0
 11
120.281334050471
 21
113.807375
 31
0.0
  0
LINE
  5
3AD
330
1D
100
AcDbEntity
  8
CSLAYER10
  6
Continuous
 62
     3
370
    15
100
AcDbLine
 10
119.763696050471
 20
115.739226
 30
0.0
 11
119.246058050471
 21
113.807375
 31
0.0
  0
LINE
  5
3AE
330
1D
100
AcDbEntity
  8
CSLAYER10
  6
Continuous
 62
     3
370
    15
100
AcDbLine
 10
119.763696050471
 20
96.78884
 30
0.0
 11
120.281334050471
 21
98.720691
 31
0.0
  0
LINE
  5
3AF
330
1D
100
AcDbEntity
  8
CSLAYER10
  6
Continuous
 62
     3
370
    15
100
AcDbLine
 10
119.763696050471
 20
96.78884
 30
0.0
 11
119.246058050471
 21
98.720691
 31
0.0
  0
TEXT
  5
3B0
330
1D
100
AcDbEntity
  8
CSLAYER10
 62
     3
370
    15
100
AcDbText
 10
118.220810642558
 20
117.433330601866
 30
0.0
 40
3.0
  1
16
 50
90.0
 41
0.636363636364
  7
FX_FONT
 72
     5
 11
118.220810642558
 21
120.933330601866
 31
0.0
100
AcDbText
  0
LINE
  5
3B1
330
1D
100
AcDbEntity
  8
CSLAYER10
  6
Continuous
 62
     3
370
    15
100
AcDbLine
 10
132.579246050471
 20
88.949105
 30
0.0
 11
119.263696050471
 21
88.949105
 31
0.0
  0
LINE
  5
3B2
330
1D
100
AcDbEntity
  8
CSLAYER10
  6
Continuous
 62
     3
370
    15
100
AcDbLine
 10
119.763696050471
 20
96.78884
 30
0.0
 11
119.763696050471
 21
88.949105
 31
0.0
  0
LINE
  5
3B3
330
1D
100
AcDbEntity
  8
CSLAYER10
  6
Continuous
 62
     3
370
    15
100
AcDbLine
 10
119.763696050471
 20
96.78884
 30
0.0
 11
120.281334050471
 21
94.856988
 31
0.0
  0
LINE
  5
3B4
330
1D
100
AcDbEntity
  8
CSLAYER10
  6
Continuous
 62
     3
370
    15
100
AcDbLine
 10
119.763696050471
 20
96.78884
 30
0.0
 11
119.246058050471
 21
94.856988
 31
0.0
  0
LINE
  5
3B5
330
1D
100
AcDbEntity
  8
CSLAYER10
  6
Continuous
 62
     3
370
    15
100
AcDbLine
 10
119.763696050471
 20
88.949105
 30
0.0
 11
120.281334050471
 21
90.880957
 31
0.0
  0
LINE
  5
3B6
330
1D
100
AcDbEntity
  8
CSLAYER10
  6
Continuous
 62
     3
370
    15
100
AcDbLine
 10
119.763696050471
 20
88.949105
 30
0.0
 11
119.246058050471
 21
90.880957
 31
0.0
  0
LINE
  5
3B8
330
1D
100
AcDbEntity
  8
CSLAYER10
  6
Continuous
 62
     3
370
    15
100
AcDbLine
 10
145.263696050471
 20
55.100521
 30
0.0
 11
145.263696050471
 21
46.600521
 31
0.0
  0
LINE
  5
3B9
330
1D
100
AcDbEntity
  8
CSLAYER10
  6
Continuous
 62
     3
370
    15
100
AcDbLine
 10
134.263696050471
 20
55.100521
 30
0.0
 11
134.263696050471
 21
46.600521
 31
0.0
  0
LINE
  5
3BA
330
1D
100
AcDbEntity
  8
CSLAYER10
  6
Continuous
 62
     3
370
    15
100
AcDbLine
 10
145.263696050471
 20
47.100521
 30
0.0
 11
134.263696050471
 21
47.100521
 31
0.0
  0
LINE
  5
3BB
330
1D
100
AcDbEntity
  8
CSLAYER10
  6
Continuous
 62
     3
370
    15
100
AcDbLine
 10
145.263696050471
 20
47.100521
 30
0.0
 11
143.331844050471
 21
47.618159
 31
0.0
  0
LINE
  5
3BC
330
1D
100
AcDbEntity
  8
CSLAYER10
  6
Continuous
 62
     3
370
    15
100
AcDbLine
 10
145.263696050471
 20
47.100521
 30
0.0
 11
143.331844050471
 21
46.582883
 31
0.0
  0
LINE
  5
3BD
330
1D
100
AcDbEntity
  8
CSLAYER10
  6
Continuous
 62
     3
370
    15
100
AcDbLine
 10
134.263696050471
 20
47.100521
 30
0.0
 11
136.195548050471
 21
47.618159
 31
0.0
  0
LINE
  5
3BE
330
1D
100
AcDbEntity
  8
CSLAYER10
  6
Continuous
 62
     3
370
    15
100
AcDbLine
 10
134.263696050471
 20
47.100521
 30
0.0
 11
136.195548050471
 21
46.582883
 31
0.0
  0
LINE
  5
3C0
330
1D
100
AcDbEntity
  8
CSLAYER10
  6
Continuous
 62
     3
370
    15
100
AcDbLine
 10
126.663696050471
 20
59.450521
 30
0.0
 11
119.263696050471
 21
59.450521
 31
0.0
  0
LINE
  5
3C1
330
1D
100
AcDbEntity
  8
CSLAYER10
  6
Continuous
 62
     3
370
    15
100
AcDbLine
 10
127.763696050471
 20
61.450521
 30
0.0
 11
119.263696050471
 21
61.450521
 31
0.0
  0
LINE
  5
3C2
330
1D
100
AcDbEntity
  8
CSLAYER10
  6
Continuous
 62
     3
370
    15
100
AcDbLine
 10
119.763696050471
 20
59.450521
 30
0.0
 11
119.763696050471
 21
61.450521
 31
0.0
  0
LINE
  5
3C3
330
1D
100
AcDbEntity
  8
CSLAYER10
  6
Continuous
 62
     3
370
    15
100
AcDbLine
 10
119.763696050471
 20
56.950521
 30
0.0
 11
119.763696050471
 21
59.450521
 31
0.0
  0
LINE
  5
3C4
330
1D
100
AcDbEntity
  8
CSLAYER10
  6
Continuous
 62
     3
370
    15
100
AcDbLine
 10
119.763696050471
 20
59.450521
 30
0.0
 11
120.281334050471
 21
57.518669
 31
0.0
  0
LINE
  5
3C5
330
1D
100
AcDbEntity
  8
CSLAYER10
  6
Continuous
 62
     3
370
    15
100
AcDbLine
 10
119.763696050471
 20
59.450521
 30
0.0
 11
119.246058050471
 21
57.518669
 31
0.0
  0
LINE
  5
3C6
330
1D
100
AcDbEntity
  8
CSLAYER10
  6
Continuous
 62
     3
370
    15
100
AcDbLine
 10
119.763696050471
 20
61.450521
 30
0.0
 11
119.763696050471
 21
63.950521
 31
0.0
  0
LINE
  5
3C7
330
1D
100
AcDbEntity
  8
CSLAYER10
  6
Continuous
 62
     3
370
    15
100
AcDbLine
 10
119.763696050471
 20
61.450521
 30
0.0
 11
120.281334050471
 21
63.382373
 31
0.0
  0
LINE
  5
3C8
330
1D
100
AcDbEntity
  8
CSLAYER10
  6
Continuous
 62
     3
370
    15
100
AcDbLine
 10
119.763696050471
 20
61.450521
 30
0.0
 11
119.246058050471
 21
63.382373
 31
0.0
  0
TEXT
  5
3C9
330
1D
100
AcDbEntity
  8
CSLAYER10
 62
     3
370
    15
100
AcDbText
 10
202.311859748751
 20
105.037229382846
 30
0.0
 40
3.0
  1
34
 50
90.0
 41
0.636363636364
  7
FX_FONT
 72
     5
 11
202.311859748751
 21
108.537229382846
 31
0.0
100
AcDbText
  0
LINE
  5
3CA
330
1D
100
AcDbEntity
  8
CSLAYER10
  6
Continuous
 62
     3
370
    15
100
AcDbLine
 10
194.920318011109
 20
114.78884
 30
0.0
 11
203.420318011109
 21
114.78884
 31
0.0
  0
LINE
  5
3CB
330
1D
100
AcDbEntity
  8
CSLAYER10
  6
Continuous
 62
     3
370
    15
100
AcDbLine
 10
194.920318011109
 20
97.78884
 30
0.0
 11
203.420318011109
 21
97.78884
 31
0.0
  0
LINE
  5
3CC
330
1D
100
AcDbEntity
  8
CSLAYER10
  6
Continuous
 62
     3
370
    15
100
AcDbLine
 10
202.920318011109
 20
114.78884
 30
0.0
 11
202.920318011109
 21
97.78884
 31
0.0
  0
LINE
  5
3CD
330
1D
100
AcDbEntity
  8
CSLAYER10
  6
Continuous
 62
     3
370
    15
100
AcDbLine
 10
202.920318011109
 20
114.78884
 30
0.0
 11
203.437956011109
 21
112.856988
 31
0.0
  0
LINE
  5
3CE
330
1D
100
AcDbEntity
  8
CSLAYER10
  6
Continuous
 62
     3
370
    15
100
AcDbLine
 10
202.920318011109
 20
114.78884
 30
0.0
 11
202.402680011109
 21
112.856988
 31
0.0
  0
LINE
  5
3CF
330
1D
100
AcDbEntity
  8
CSLAYER10
  6
Continuous
 62
     3
370
    15
100
AcDbLine
 10
202.920318011109
 20
97.78884
 30
0.0
 11
203.437956011109
 21
99.720691
 31
0.0
  0
LINE
  5
3D0
330
1D
100
AcDbEntity
  8
CSLAYER10
  6
Continuous
 62
     3
370
    15
100
AcDbLine
 10
202.920318011109
 20
97.78884
 30
0.0
 11
202.402680011109
 21
99.720691
 31
0.0
  0
TEXT
  5
3E2
330
1D
100
AcDbEntity
  8
CSLAYER10
 62
     3
370
    15
100
AcDbText
 10
153.741670990312
 20
133.879049645105
 30
0.0
 40
3.0
  1
2-4mmネジ用穴
 41
0.550699300699
  7
FX_FONT
 72
     5
 11
169.491670990312
 21
133.879049645105
 31
0.0
100
AcDbText
  0
LINE
  5
3E3
330
1D
100
AcDbEntity
  8
CSLAYER10
  6
Continuous
 62
     3
370
    15
100
AcDbLine
 10
141.354686246563
 20
121.379830319248
 30
0.0
 11
152.682150050471
 21
132.707295
 31
0.0
  0
LINE
  5
3E4
330
1D
100
AcDbEntity
  8
CSLAYER10
  6
Continuous
 62
     3
370
    15
100
AcDbLine
 10
141.354686246563
 20
121.379830319248
 30
0.0
 11
143.086737246563
 21
122.379830319248
 31
0.0
  0
LINE
  5
3E5
330
1D
100
AcDbEntity
  8
CSLAYER10
  6
Continuous
 62
     3
370
    15
100
AcDbLine
 10
141.354686246563
 20
121.379830319248
 30
0.0
 11
142.354686246563
 21
123.111881319248
 31
0.0
  0
LINE
  5
3E6
330
1D
100
AcDbEntity
  8
CSLAYER10
  6
Continuous
 62
     3
370
    15
100
AcDbLine
 10
152.682150050471
 20
132.707295
 30
0.0
 11
170.030724050471
 21
132.707295
 31
0.0
  0
TEXT
  5
3E7
330
1D
100
AcDbEntity
  8
CSLAYER10
 62
     3
370
    15
100
AcDbText
 10
276.462708
 20
105.290222
 30
0.0
 40
3.0
  1
57
 41
0.633962264151
  7
FX_FONT
 72
     5
 11
279.962708
 21
105.290222
 31
0.0
100
AcDbText
  0
LINE
  5
3E8
330
1D
100
AcDbEntity
  8
CSLAYER10
  6
Continuous
 62
     3
370
    15
100
AcDbLine
 10
263.962704
 20
119.290226
 30
0.0
 11
263.962704
 21
104.290226
 31
0.0
  0
LINE
  5
3E9
330
1D
100
AcDbEntity
  8
CSLAYER10
  6
Continuous
 62
     3
370
    15
100
AcDbLine
 10
292.462704
 20
119.290226
 30
0.0
 11
292.462704
 21
104.290226
 31
0.0
  0
LINE
  5
3EA
330
1D
100
AcDbEntity
  8
CSLAYER10
  6
Continuous
 62
     3
370
    15
100
AcDbLine
 10
263.962704
 20
104.790226
 30
0.0
 11
292.462704
 21
104.790226
 31
0.0
  0
LINE
  5
3EB
330
1D
100
AcDbEntity
  8
CSLAYER10
  6
Continuous
 62
     3
370
    15
100
AcDbLine
 10
263.962704
 20
104.790226
 30
0.0
 11
265.894556
 21
105.307864
 31
0.0
  0
LINE
  5
3EC
330
1D
100
AcDbEntity
  8
CSLAYER10
  6
Continuous
 62
     3
370
    15
100
AcDbLine
 10
263.962704
 20
104.790226
 30
0.0
 11
265.894556
 21
104.272588
 31
0.0
  0
LINE
  5
3ED
330
1D
100
AcDbEntity
  8
CSLAYER10
  6
Continuous
 62
     3
370
    15
100
AcDbLine
 10
292.462704
 20
104.790226
 30
0.0
 11
290.530853
 21
105.307864
 31
0.0
  0
LINE
  5
3EE
330
1D
100
AcDbEntity
  8
CSLAYER10
  6
Continuous
 62
     3
370
    15
100
AcDbLine
 10
292.462704
 20
104.790226
 30
0.0
 11
290.530853
 21
104.272588
 31
0.0
  0
TEXT
  5
3EF
330
1D
100
AcDbEntity
  8
CSLAYER10
 62
     3
370
    15
100
AcDbText
 10
276.462708
 20
112.790222
 30
0.0
 40
3.0
  1
41
 41
0.7
  7
FX_FONT
 72
     5
 11
279.962708
 21
112.790222
 31
0.0
100
AcDbText
  0
LINE
  5
3F0
330
1D
100
AcDbEntity
  8
CSLAYER10
  6
Continuous
 62
     3
370
    15
100
AcDbLine
 10
267.962704
 20
121.659444
 30
0.0
 11
267.962704
 21
111.790226
 31
0.0
  0
LINE
  5
3F1
330
1D
100
AcDbEntity
  8
CSLAYER10
  6
Continuous
 62
     3
370
    15
100
AcDbLine
 10
288.462704
 20
121.659444
 30
0.0
 11
288.462704
 21
111.790226
 31
0.0
  0
LINE
  5
3F2
330
1D
100
AcDbEntity
  8
CSLAYER10
  6
Continuous
 62
     3
370
    15
100
AcDbLine
 10
267.962704
 20
112.290226
 30
0.0
 11
288.462704
 21
112.290226
 31
0.0
  0
LINE
  5
3F3
330
1D
100
AcDbEntity
  8
CSLAYER10
  6
Continuous
 62
     3
370
    15
100
AcDbLine
 10
267.962704
 20
112.290226
 30
0.0
 11
269.894556
 21
112.807864
 31
0.0
  0
LINE
  5
3F4
330
1D
100
AcDbEntity
  8
CSLAYER10
  6
Continuous
 62
     3
370
    15
100
AcDbLine
 10
267.962704
 20
112.290226
 30
0.0
 11
269.894556
 21
111.772588
 31
0.0
  0
LINE
  5
3F5
330
1D
100
AcDbEntity
  8
CSLAYER10
  6
Continuous
 62
     3
370
    15
100
AcDbLine
 10
288.462704
 20
112.290226
 30
0.0
 11
286.530853
 21
112.807864
 31
0.0
  0
LINE
  5
3F6
330
1D
100
AcDbEntity
  8
CSLAYER10
  6
Continuous
 62
     3
370
    15
100
AcDbLine
 10
288.462704
 20
112.290226
 30
0.0
 11
286.530853
 21
111.772588
 31
0.0
  0
TEXT
  5
3F7
330
1D
100
AcDbEntity
  8
CSLAYER10
 62
     3
370
    15
100
AcDbText
 10
240.030029
 20
137.758667
 30
0.0
 40
3.0
  1
2-4mmネジ用穴
 41
0.550699300699
  7
FX_FONT
 72
     5
 11
255.780029
 21
137.758667
 31
0.0
100
AcDbText
  0
LINE
  5
3F8
330
1D
100
AcDbEntity
  8
CSLAYER10
  6
Continuous
 62
     3
370
    15
100
AcDbLine
 10
266.460102156992
 20
127.292827977035
 30
0.0
 11
256.751545
 21
137.001386
 31
0.0
  0
LINE
  5
3F9
330
1D
100
AcDbEntity
  8
CSLAYER10
  6
Continuous
 62
     3
370
    15
100
AcDbLine
 10
266.460102156992
 20
127.292827977035
 30
0.0
 11
264.728052156992
 21
128.292827977035
 31
0.0
  0
LINE
  5
3FA
330
1D
100
AcDbEntity
  8
CSLAYER10
  6
Continuous
 62
     3
370
    15
100
AcDbLine
 10
266.460102156992
 20
127.292827977035
 30
0.0
 11
265.460102156992
 21
129.024878977035
 31
0.0
  0
LINE
  5
3FB
330
1D
100
AcDbEntity
  8
CSLAYER10
  6
Continuous
 62
     3
370
    15
100
AcDbLine
 10
256.751545
 20
137.001386
 30
0.0
 11
239.465162
 21
137.001386
 31
0.0
  0
TEXT
  5
3FC
330
1D
100
AcDbEntity
  8
CSLAYER10
 62
     3
370
    15
100
AcDbText
 10
273.880432
 20
169.35553
 30
0.0
 40
3.0
  1
%%c17.5
 41
0.603448275862
  7
FX_FONT
 72
     5
 11
282.630432
 21
169.35553
 31
0.0
100
AcDbText
  0
LINE
  5
3FD
330
1D
100
AcDbEntity
  8
CSLAYER10
  6
Continuous
 62
     3
370
    15
100
AcDbLine
 10
273.787704
 20
177.928081
 30
0.0
 11
273.787704
 21
172.928081
 31
0.0
  0
LINE
  5
3FE
330
1D
100
AcDbEntity
  8
CSLAYER10
  6
Continuous
 62
     3
370
    15
100
AcDbLine
 10
282.637704
 20
177.928081
 30
0.0
 11
282.637704
 21
172.928081
 31
0.0
  0
LINE
  5
3FF
330
1D
100
AcDbEntity
  8
CSLAYER10
  6
Continuous
 62
     3
370
    15
100
AcDbLine
 10
273.787704
 20
173.428081
 30
0.0
 11
282.637704
 21
173.428081
 31
0.0
  0
LINE
  5
400
330
1D
100
AcDbEntity
  8
CSLAYER10
  6
Continuous
 62
     3
370
    15
100
AcDbLine
 10
273.787704
 20
173.428081
 30
0.0
 11
275.719556
 21
173.945719
 31
0.0
  0
LINE
  5
401
330
1D
100
AcDbEntity
  8
CSLAYER10
  6
Continuous
 62
     3
370
    15
100
AcDbLine
 10
273.787704
 20
173.428081
 30
0.0
 11
275.719556
 21
172.910443
 31
0.0
  0
LINE
  5
402
330
1D
100
AcDbEntity
  8
CSLAYER10
  6
Continuous
 62
     3
370
    15
100
AcDbLine
 10
282.637704
 20
173.428081
 30
0.0
 11
280.705853
 21
173.945719
 31
0.0
  0
LINE
  5
403
330
1D
100
AcDbEntity
  8
CSLAYER10
  6
Continuous
 62
     3
370
    15
100
AcDbLine
 10
282.637704
 20
173.428081
 30
0.0
 11
280.705853
 21
172.910443
 31
0.0
  0
TEXT
  5
404
330
1D
100
AcDbEntity
  8
CSLAYER10
 62
     3
370
    15
100
AcDbText
 10
299.666951806611
 20
173.642737400463
 30
0.0
 40
3.0
  1
10
 50
90.0
 41
0.658307210031
  7
FX_FONT
 72
     5
 11
299.666951806611
 21
177.142737400463
 31
0.0
100
AcDbText
  0
LINE
  5
405
330
1D
100
AcDbEntity
  8
CSLAYER10
  6
Continuous
 62
     3
370
    15
100
AcDbLine
 10
283.137704
 20
178.428081
 30
0.0
 11
300.462704
 21
178.428081
 31
0.0
  0
LINE
  5
406
330
1D
100
AcDbEntity
  8
CSLAYER10
  6
Continuous
 62
     3
370
    15
100
AcDbLine
 10
292.962704
 20
183.428081
 30
0.0
 11
300.462704
 21
183.428081
 31
0.0
  0
LINE
  5
407
330
1D
100
AcDbEntity
  8
CSLAYER10
  6
Continuous
 62
     3
370
    15
100
AcDbLine
 10
299.962704
 20
173.440057422563
 30
0.0
 11
299.962704
 21
183.428081
 31
0.0
  0
LINE
  5
408
330
1D
100
AcDbEntity
  8
CSLAYER10
  6
Continuous
 62
     3
370
    15
100
AcDbLine
 10
299.962704
 20
178.428081
 30
0.0
 11
299.445066
 21
180.359933
 31
0.0
  0
LINE
  5
409
330
1D
100
AcDbEntity
  8
CSLAYER10
  6
Continuous
 62
     3
370
    15
100
AcDbLine
 10
299.962704
 20
178.428081
 30
0.0
 11
300.480342
 21
180.359933
 31
0.0
  0
LINE
  5
40A
330
1D
100
AcDbEntity
  8
CSLAYER10
  6
Continuous
 62
     3
370
    15
100
AcDbLine
 10
299.962704
 20
183.428081
 30
0.0
 11
299.445066
 21
181.49623
 31
0.0
  0
LINE
  5
40B
330
1D
100
AcDbEntity
  8
CSLAYER10
  6
Continuous
 62
     3
370
    15
100
AcDbLine
 10
299.962704
 20
183.428081
 30
0.0
 11
300.480342
 21
181.49623
 31
0.0
  0
TEXT
  5
40C
330
1D
100
AcDbEntity
  8
CSLAYER10
 62
     3
370
    15
100
AcDbText
 10
299.296509
 20
186.133957
 30
0.0
 40
3.0
  1
3.2
 50
90.0
 41
0.617647058824
  7
FX_FONT
 72
     5
 11
299.296509
 21
191.383957
 31
0.0
100
AcDbText
  0
LINE
  5
40D
330
1D
100
AcDbEntity
  8
CSLAYER10
  6
Continuous
 62
     3
370
    15
100
AcDbLine
 10
289.487704
 20
185.028081
 30
0.0
 11
300.462704
 21
185.028081
 31
0.0
  0
LINE
  5
40E
330
1D
100
AcDbEntity
  8
CSLAYER10
  6
Continuous
 62
     3
370
    15
100
AcDbLine
 10
299.962704
 20
183.428081
 30
0.0
 11
299.962704
 21
185.028081
 31
0.0
  0
LINE
  5
40F
330
1D
100
AcDbEntity
  8
CSLAYER10
  6
Continuous
 62
     3
370
    15
100
AcDbLine
 10
299.962704
 20
185.028081
 30
0.0
 11
299.962704
 21
192.048576
 31
0.0
  0
LINE
  5
410
330
1D
100
AcDbEntity
  8
CSLAYER10
  6
Continuous
 62
     3
370
    15
100
AcDbLine
 10
299.962704
 20
185.028081
 30
0.0
 11
299.445066
 21
186.959933
 31
0.0
  0
LINE
  5
411
330
1D
100
AcDbEntity
  8
CSLAYER10
  6
Continuous
 62
     3
370
    15
100
AcDbLine
 10
299.962704
 20
185.028081
 30
0.0
 11
300.480342
 21
186.959933
 31
0.0
  0
TEXT
  5
412
330
1D
100
AcDbEntity
  8
CSLAYER10
 62
     3
370
    15
100
AcDbText
 10
275.587708
 20
189.677536
 30
0.0
 40
3.0
  1
%%c20
 41
0.63126252505
  7
FX_FONT
 72
     5
 11
280.837708
 21
189.677536
 31
0.0
100
AcDbText
  0
LINE
  5
413
330
1D
100
AcDbEntity
  8
CSLAYER10
  6
Continuous
 62
     3
370
    15
100
AcDbLine
 10
273.212704
 20
188.310039
 30
0.0
 11
273.212704
 21
189.677534
 31
0.0
  0
LINE
  5
414
330
1D
100
AcDbEntity
  8
CSLAYER10
  6
Continuous
 62
     3
370
    15
100
AcDbLine
 10
283.212704
 20
188.03654
 30
0.0
 11
283.212704
 21
189.677534
 31
0.0
  0
LINE
  5
415
330
1D
100
AcDbEntity
  8
CSLAYER10
  6
Continuous
 62
     3
370
    15
100
AcDbLine
 10
273.212704
 20
189.177534
 30
0.0
 11
283.212704
 21
189.177534
 31
0.0
  0
LINE
  5
416
330
1D
100
AcDbEntity
  8
CSLAYER10
  6
Continuous
 62
     3
370
    15
100
AcDbLine
 10
273.212704
 20
189.177534
 30
0.0
 11
275.144556
 21
189.695172
 31
0.0
  0
LINE
  5
417
330
1D
100
AcDbEntity
  8
CSLAYER10
  6
Continuous
 62
     3
370
    15
100
AcDbLine
 10
273.212704
 20
189.177534
 30
0.0
 11
275.144556
 21
188.659896
 31
0.0
  0
LINE
  5
418
330
1D
100
AcDbEntity
  8
CSLAYER10
  6
Continuous
 62
     3
370
    15
100
AcDbLine
 10
283.212704
 20
189.177534
 30
0.0
 11
281.280853
 21
189.695172
 31
0.0
  0
LINE
  5
419
330
1D
100
AcDbEntity
  8
CSLAYER10
  6
Continuous
 62
     3
370
    15
100
AcDbLine
 10
283.212704
 20
189.177534
 30
0.0
 11
281.280853
 21
188.659896
 31
0.0
  0
TEXT
  5
41A
330
1D
100
AcDbEntity
  8
CSLAYER10
 62
     3
370
    15
100
AcDbText
 10
258.133962012701
 20
190.989830528676
 30
0.0
 40
3.0
  1
バックセット６０
 50
90.0
 41
0.510948905109
  7
FX_FONT
 72
     5
 11
258.133962012701
 21
204.989830528676
 31
0.0
100
AcDbText
  0
LINE
  5
41B
330
1D
100
AcDbEntity
  8
CSLAYER10
  6
Continuous
 62
     3
370
    15
100
AcDbLine
 10
263.462704
 20
183.428081
 30
0.0
 11
258.462704
 21
183.428081
 31
0.0
  0
LINE
  5
41C
330
1D
100
AcDbEntity
  8
CSLAYER10
  6
Continuous
 62
     3
370
    15
100
AcDbLine
 10
264.212704
 20
213.428081
 30
0.0
 11
258.462704
 21
213.428081
 31
0.0
  0
LINE
  5
41E
330
1D
100
AcDbEntity
  8
CSLAYER10
  6
Continuous
 62
     3
370
    15
100
AcDbLine
 10
258.962704
 20
183.428081
 30
0.0
 11
258.445066
 21
185.359933
 31
0.0
  0
LINE
  5
41F
330
1D
100
AcDbEntity
  8
CSLAYER10
  6
Continuous
 62
     3
370
    15
100
AcDbLine
 10
258.962704
 20
183.428081
 30
0.0
 11
259.480342
 21
185.359933
 31
0.0
  0
LINE
  5
420
330
1D
100
AcDbEntity
  8
CSLAYER10
  6
Continuous
 62
     3
370
    15
100
AcDbLine
 10
258.962704
 20
183.428081
 30
0.0
 11
258.962704
 21
213.428081
 31
0.0
  0
LINE
  5
421
330
1D
100
AcDbEntity
  8
CSLAYER10
  6
Continuous
 62
     3
370
    15
100
AcDbLine
 10
258.962704
 20
213.428081
 30
0.0
 11
258.445066
 21
211.49623
 31
0.0
  0
LINE
  5
422
330
1D
100
AcDbEntity
  8
CSLAYER10
  6
Continuous
 62
     3
370
    15
100
AcDbLine
 10
258.962704
 20
213.428081
 30
0.0
 11
259.480342
 21
211.49623
 31
0.0
  0
TEXT
  5
423
330
1D
100
AcDbEntity
  8
CSLAYER10
 62
     3
370
    15
100
AcDbText
 10
297.677514450814
 20
232.461104557852
 30
0.0
 40
3.0
  1
本体取付穴
 41
0.508720930233
  7
FX_FONT
 72
     5
 11
306.427514450814
 21
232.461104557852
 31
0.0
100
AcDbText
  0
LINE
  5
424
102
{ACAD_REACTORS
330
56E
102
}
330
1D
100
AcDbEntity
  8
CSLAYER10
  6
Continuous
 62
     3
370
    15
100
AcDbLine
 10
287.46489382024
 20
223.259000770309
 30
0.0
 11
295.458471196659
 21
231.752581143402
 31
0.0
  0
LINE
  5
425
330
1D
100
AcDbEntity
  8
CSLAYER10
  6
Continuous
 62
     3
370
    15
100
AcDbLine
 10
287.46489382024
 20
223.259000770309
 30
0.0
 11
288.411930820257
 21
225.020568388011
 31
0.0
  0
LINE
  5
426
330
1D
100
AcDbEntity
  8
CSLAYER10
  6
Continuous
 62
     3
370
    15
100
AcDbLine
 10
287.46489382024
 20
223.259000770309
 30
0.0
 11
289.16583661399
 21
224.311044751371
 31
0.0
  0
LINE
  5
427
330
1D
100
AcDbEntity
  8
CSLAYER10
  6
Continuous
 62
     3
370
    15
100
AcDbLine
 10
295.458471196659
 20
231.752581143402
 30
0.0
 11
309.141568196659
 21
231.752581143402
 31
0.0
  0
TEXT
  5
428
330
1D
100
AcDbEntity
  8
CSLAYER10
 62
     3
370
    15
100
AcDbText
 10
168.882492
 20
181.521927
 30
0.0
 40
3.0
  1
ラッチ取付穴%%c22
 41
0.523255813953
  7
FX_FONT
 72
     5
 11
184.632492
 21
181.521927
 31
0.0
100
AcDbText
  0
LINE
  5
429
102
{ACAD_REACTORS
330
567
102
}
330
1D
100
AcDbEntity
  8
CSLAYER10
  6
Continuous
 62
     3
370
    15
100
AcDbLine
 10
154.239129743865
 20
208.474080476768
 30
0.0
 11
167.934693
 21
180.075373
 31
0.0
  0
LINE
  5
42A
102
{ACAD_REACTORS
330
567
102
}
330
1D
100
AcDbEntity
  8
CSLAYER10
  6
Continuous
 62
     3
370
    15
100
AcDbLine
 10
154.239129743865
 20
208.474080476768
 30
0.0
 11
155.544547743865
 21
206.958863476768
 31
0.0
  0
LINE
  5
42B
330
1D
100
AcDbEntity
  8
CSLAYER10
  6
Continuous
 62
     3
370
    15
100
AcDbLine
 10
154.239129743865
 20
208.474080476768
 30
0.0
 11
154.612045743865
 21
206.509155476768
 31
0.0
  0
LINE
  5
42C
330
1D
100
AcDbEntity
  8
CSLAYER10
  6
Continuous
 62
     3
370
    15
100
AcDbLine
 10
167.934693
 20
180.075373
 30
0.0
 11
184.440778
 21
180.075373
 31
0.0
  0
TEXT
  5
42D
330
1D
100
AcDbEntity
  8
CSLAYER10
 62
     3
370
    15
100
AcDbText
 10
198.896317
 20
210.682053
 30
0.0
 40
3.0
  1
%%c50
 50
90.0
 41
0.629685157421
  7
FX_FONT
 72
     5
 11
198.896317
 21
215.932053
 31
0.0
100
AcDbText
  0
LINE
  5
42E
330
1D
100
AcDbEntity
  8
CSLAYER10
  6
Continuous
 62
     3
370
    15
100
AcDbLine
 10
158.650013
 20
200.928081
 30
0.0
 11
201.177851
 21
200.928081
 31
0.0
  0
LINE
  5
42F
330
1D
100
AcDbEntity
  8
CSLAYER10
  6
Continuous
 62
     3
370
    15
100
AcDbLine
 10
158.650013
 20
225.928081
 30
0.0
 11
201.177851
 21
225.928081
 31
0.0
  0
LINE
  5
430
330
1D
100
AcDbEntity
  8
CSLAYER10
  6
Continuous
 62
     3
370
    15
100
AcDbLine
 10
200.177851
 20
200.928081
 30
0.0
 11
200.177851
 21
225.928081
 31
0.0
  0
LINE
  5
431
330
1D
100
AcDbEntity
  8
CSLAYER10
  6
Continuous
 62
     3
370
    15
100
AcDbLine
 10
200.177851
 20
200.928081
 30
0.0
 11
199.660213
 21
202.859933
 31
0.0
  0
LINE
  5
432
330
1D
100
AcDbEntity
  8
CSLAYER10
  6
Continuous
 62
     3
370
    15
100
AcDbLine
 10
200.177851
 20
200.928081
 30
0.0
 11
200.695489
 21
202.859933
 31
0.0
  0
LINE
  5
433
330
1D
100
AcDbEntity
  8
CSLAYER10
  6
Continuous
 62
     3
370
    15
100
AcDbLine
 10
200.177851
 20
225.928081
 30
0.0
 11
199.660213
 21
223.99623
 31
0.0
  0
LINE
  5
434
330
1D
100
AcDbEntity
  8
CSLAYER10
  6
Continuous
 62
     3
370
    15
100
AcDbLine
 10
200.177851
 20
225.928081
 30
0.0
 11
200.695489
 21
223.99623
 31
0.0
  0
TEXT
  5
444
330
1D
100
AcDbEntity
  8
CSLAYER10
 62
     3
370
    15
100
AcDbText
 10
131.763689050471
 20
143.207751844783
 30
0.0
 40
3.0
  1
25
 41
0.636363636364
  7
FX_FONT
 72
     5
 11
135.263689050471
 21
143.207751844783
 31
0.0
100
AcDbText
  0
LINE
  5
445
330
1D
100
AcDbEntity
  8
CSLAYER10
  6
Continuous
 62
     3
370
    15
100
AcDbLine
 10
127.263696050471
 20
114.803927165324
 30
0.0
 11
127.263696050471
 21
143.207757844783
 31
0.0
  0
LINE
  5
446
330
1D
100
AcDbEntity
  8
CSLAYER10
  6
Continuous
 62
     3
370
    15
100
AcDbLine
 10
139.763696050471
 20
125.832757844783
 30
0.0
 11
139.763696050471
 21
143.207757844783
 31
0.0
  0
LINE
  5
447
330
1D
100
AcDbEntity
  8
CSLAYER10
  6
Continuous
 62
     3
370
    15
100
AcDbLine
 10
127.263696050471
 20
142.207757844783
 30
0.0
 11
139.763696050471
 21
142.207757844783
 31
0.0
  0
LINE
  5
448
330
1D
100
AcDbEntity
  8
CSLAYER10
  6
Continuous
 62
     3
370
    15
100
AcDbLine
 10
127.263696050471
 20
142.207757844783
 30
0.0
 11
129.195548050472
 21
142.725395844783
 31
0.0
  0
LINE
  5
449
330
1D
100
AcDbEntity
  8
CSLAYER10
  6
Continuous
 62
     3
370
    15
100
AcDbLine
 10
127.263696050471
 20
142.207757844783
 30
0.0
 11
129.195548050472
 21
141.690119844783
 31
0.0
  0
LINE
  5
44A
330
1D
100
AcDbEntity
  8
CSLAYER10
  6
Continuous
 62
     3
370
    15
100
AcDbLine
 10
139.763696050471
 20
142.207757844783
 30
0.0
 11
137.831844050471
 21
142.725395844783
 31
0.0
  0
LINE
  5
44B
330
1D
100
AcDbEntity
  8
CSLAYER10
  6
Continuous
 62
     3
370
    15
100
AcDbLine
 10
139.763696050471
 20
142.207757844783
 30
0.0
 11
137.831844050471
 21
141.690119844783
 31
0.0
  0
TEXT
  5
44C
330
1D
100
AcDbEntity
  8
CSLAYER10
 62
     3
370
    15
100
AcDbText
 10
122.350014
 20
240.428085
 30
0.0
 40
3.0
  1
37
 41
0.636363636364
  7
FX_FONT
 72
     5
 11
125.850014
 21
240.428085
 31
0.0
100
AcDbText
  0
LINE
  5
44D
330
1D
100
AcDbEntity
  8
CSLAYER10
  6
Continuous
 62
     3
370
    15
100
AcDbLine
 10
114.850013
 20
225.678081
 30
0.0
 11
114.850013
 21
260.629132879208
 31
0.0
  0
LINE
  5
44E
330
1D
100
AcDbEntity
  8
CSLAYER10
  6
Continuous
 62
     3
370
    15
100
AcDbLine
 10
133.350013
 20
224.678081
 30
0.0
 11
133.350013
 21
240.733152
 31
0.0
  0
LINE
  5
44F
330
1D
100
AcDbEntity
  8
CSLAYER10
  6
Continuous
 62
     3
370
    15
100
AcDbLine
 10
114.850013
 20
239.428081
 30
0.0
 11
133.350013
 21
239.428081
 31
0.0
  0
LINE
  5
450
330
1D
100
AcDbEntity
  8
CSLAYER10
  6
Continuous
 62
     3
370
    15
100
AcDbLine
 10
114.850013
 20
239.428081
 30
0.0
 11
116.781865
 21
239.945719
 31
0.0
  0
LINE
  5
451
330
1D
100
AcDbEntity
  8
CSLAYER10
  6
Continuous
 62
     3
370
    15
100
AcDbLine
 10
114.850013
 20
239.428081
 30
0.0
 11
116.781865
 21
238.910443
 31
0.0
  0
LINE
  5
452
330
1D
100
AcDbEntity
  8
CSLAYER10
  6
Continuous
 62
     3
370
    15
100
AcDbLine
 10
133.350013
 20
239.428081
 30
0.0
 11
131.418161
 21
239.945719
 31
0.0
  0
LINE
  5
453
330
1D
100
AcDbEntity
  8
CSLAYER10
  6
Continuous
 62
     3
370
    15
100
AcDbLine
 10
133.350013
 20
239.428081
 30
0.0
 11
131.418161
 21
238.910443
 31
0.0
  0
TEXT
  5
454
330
1D
100
AcDbEntity
  8
CSLAYER10
 62
     3
370
    15
100
AcDbText
 10
149.225006
 20
260.795817879208
 30
0.0
 40
3.0
  1
148
 41
0.617647058824
  7
FX_FONT
 72
     5
 11
154.475006
 21
260.795817879208
 31
0.0
100
AcDbText
  0
LINE
  5
455
330
1D
100
AcDbEntity
  8
CSLAYER10
  6
Continuous
 62
     3
370
    15
100
AcDbLine
 10
188.850013
 20
225.678081
 30
0.0
 11
188.850013
 21
260.795813879208
 31
0.0
  0
LINE
  5
456
330
1D
100
AcDbEntity
  8
CSLAYER10
  6
Continuous
 62
     3
370
    15
100
AcDbLine
 10
114.850013
 20
259.795813879208
 30
0.0
 11
188.850013
 21
259.795813879208
 31
0.0
  0
LINE
  5
457
330
1D
100
AcDbEntity
  8
CSLAYER10
  6
Continuous
 62
     3
370
    15
100
AcDbLine
 10
114.850013
 20
259.795813879208
 30
0.0
 11
116.781865
 21
260.313451879208
 31
0.0
  0
LINE
  5
458
330
1D
100
AcDbEntity
  8
CSLAYER10
  6
Continuous
 62
     3
370
    15
100
AcDbLine
 10
114.850013
 20
259.795813879208
 30
0.0
 11
116.781865
 21
259.278175879208
 31
0.0
  0
LINE
  5
459
330
1D
100
AcDbEntity
  8
CSLAYER10
  6
Continuous
 62
     3
370
    15
100
AcDbLine
 10
188.850013
 20
259.795813879208
 30
0.0
 11
186.918161
 21
260.313451879208
 31
0.0
  0
LINE
  5
45A
330
1D
100
AcDbEntity
  8
CSLAYER10
  6
Continuous
 62
     3
370
    15
100
AcDbLine
 10
188.850013
 20
259.795813879208
 30
0.0
 11
186.918161
 21
259.278175879208
 31
0.0
  0
LINE
  5
45B
330
1D
100
AcDbEntity
  8
CSLAYER10
  6
Continuous
 62
     3
370
    15
100
AcDbLine
 10
143.600013
 20
230.103081
 30
0.0
 11
143.600013
 21
250.760358850677
 31
0.0
  0
LINE
  5
45C
330
1D
100
AcDbEntity
  8
CSLAYER10
  6
Continuous
 62
     3
370
    15
100
AcDbLine
 10
160.100013
 20
230.103081
 30
0.0
 11
160.100013
 21
250.760358850677
 31
0.0
  0
LINE
  5
45D
330
1D
100
AcDbEntity
  8
CSLAYER10
  6
Continuous
 62
     3
370
    15
100
AcDbLine
 10
143.600013
 20
249.760358850677
 30
0.0
 11
160.100013
 21
249.760358850677
 31
0.0
  0
LINE
  5
45E
330
1D
100
AcDbEntity
  8
CSLAYER10
  6
Continuous
 62
     3
370
    15
100
AcDbLine
 10
143.600013
 20
249.760358850677
 30
0.0
 11
145.531865
 21
250.277996850677
 31
0.0
  0
LINE
  5
45F
330
1D
100
AcDbEntity
  8
CSLAYER10
  6
Continuous
 62
     3
370
    15
100
AcDbLine
 10
143.600013
 20
249.760358850677
 30
0.0
 11
145.531865
 21
249.242720850677
 31
0.0
  0
LINE
  5
460
330
1D
100
AcDbEntity
  8
CSLAYER10
  6
Continuous
 62
     3
370
    15
100
AcDbLine
 10
160.100013
 20
249.760358850677
 30
0.0
 11
158.168161
 21
250.277996850677
 31
0.0
  0
LINE
  5
461
330
1D
100
AcDbEntity
  8
CSLAYER10
  6
Continuous
 62
     3
370
    15
100
AcDbLine
 10
160.100013
 20
249.760358850677
 30
0.0
 11
158.168161
 21
249.242720850677
 31
0.0
  0
LINE
  5
463
330
1D
100
AcDbEntity
  8
CSLAYER10
  6
Continuous
 62
     3
370
    15
100
AcDbLine
 10
114.850012692934
 20
225.678081072536
 30
0.0
 11
114.85001228222
 21
242.063020072536
 31
0.0
  0
LINE
  5
464
330
1D
100
AcDbEntity
  8
CSLAYER10
  6
Continuous
 62
     3
370
    15
100
AcDbLine
 10
143.600012582015
 20
230.103081793201
 30
0.0
 11
143.60001228222
 21
242.063020793201
 31
0.0
  0
LINE
  5
465
330
1D
100
AcDbEntity
  8
CSLAYER10
  6
Continuous
 62
     3
370
    15
100
AcDbLine
 10
114.850012307286
 20
249.760358130012
 30
0.0
 11
143.600012307286
 21
249.760358850677
 31
0.0
  0
LINE
  5
466
330
1D
100
AcDbEntity
  8
CSLAYER10
  6
Continuous
 62
     3
370
    15
100
AcDbLine
 10
114.850012307286
 20
249.760358130012
 30
0.0
 11
116.781864320262
 21
249.242720178437
 31
0.0
  0
LINE
  5
467
330
1D
100
AcDbEntity
  8
CSLAYER10
  6
Continuous
 62
     3
370
    15
100
AcDbLine
 10
114.850012307286
 20
249.760358130012
 30
0.0
 11
116.781864294311
 21
250.277996178437
 31
0.0
  0
LINE
  5
468
330
1D
100
AcDbEntity
  8
CSLAYER10
  6
Continuous
 62
     3
370
    15
100
AcDbLine
 10
143.600012307286
 20
249.760358850677
 30
0.0
 11
141.668160320262
 21
249.242720802252
 31
0.0
  0
LINE
  5
469
330
1D
100
AcDbEntity
  8
CSLAYER10
  6
Continuous
 62
     3
370
    15
100
AcDbLine
 10
143.600012307286
 20
249.760358850677
 30
0.0
 11
141.668160294311
 21
250.277996802252
 31
0.0
  0
TEXT
  5
4A1
330
1D
100
AcDbEntity
  8
CSLAYER10
 62
     3
370
    15
100
AcDbText
 10
147.08425324219
 20
251.099202958545
 30
0.0
 40
3.0
  1
25～37
 41
0.654383751257
  7
FX_FONT
 72
     5
 11
156.979080880982
 21
251.099202958545
 31
0.0
100
AcDbText
  0
TEXT
  5
4A2
330
1D
100
AcDbEntity
  8
CSLAYER10
 62
     3
370
    15
100
AcDbText
 10
121.350005332353
 20
250.760354408409
 30
0.0
 40
3.0
  1
55.5～60.5
 50
359.99999856379
 41
0.579310344828
  7
FX_FONT
 72
     5
 11
137.100005332353
 21
250.76035401361
 31
0.0
100
AcDbText
  0
TEXT
  5
4E4
330
1D
100
AcDbEntity
  8
CSLAYER10
 62
     3
370
    15
100
AcDbText
 10
300.819506023713
 20
124.277577706258
 30
0.0
 40
3.0
  1
24
 50
90.0
 41
0.636363636364
  7
FX_FONT
 72
     5
 11
300.819506023713
 21
127.777577706258
 31
0.0
100
AcDbText
  0
LINE
  5
4E5
330
1D
100
AcDbEntity
  8
CSLAYER10
  6
Continuous
 62
     3
370
    15
100
AcDbLine
 10
293.36562728247
 20
131.820791285057
 30
0.0
 11
301.86562728247
 21
131.820791285057
 31
0.0
  0
LINE
  5
4E6
330
1D
100
AcDbEntity
  8
CSLAYER10
  6
Continuous
 62
     3
370
    15
100
AcDbLine
 10
293.36562728247
 20
119.790226
 30
0.0
 11
301.86562728247
 21
119.790226
 31
0.0
  0
LINE
  5
4E7
330
1D
100
AcDbEntity
  8
CSLAYER10
  6
Continuous
 62
     3
370
    15
100
AcDbLine
 10
301.36562728247
 20
131.820791285057
 30
0.0
 11
301.36562728247
 21
119.790226
 31
0.0
  0
LINE
  5
4E8
330
1D
100
AcDbEntity
  8
CSLAYER10
  6
Continuous
 62
     3
370
    15
100
AcDbLine
 10
301.36562728247
 20
131.820791285057
 30
0.0
 11
301.883265282469
 21
129.888939285057
 31
0.0
  0
LINE
  5
4E9
330
1D
100
AcDbEntity
  8
CSLAYER10
  6
Continuous
 62
     3
370
    15
100
AcDbLine
 10
301.36562728247
 20
131.820791285057
 30
0.0
 11
300.847989282469
 21
129.888939285057
 31
0.0
  0
LINE
  5
4EA
330
1D
100
AcDbEntity
  8
CSLAYER10
  6
Continuous
 62
     3
370
    15
100
AcDbLine
 10
301.36562728247
 20
119.790226
 30
0.0
 11
301.883265282469
 21
121.722077
 31
0.0
  0
LINE
  5
4EB
330
1D
100
AcDbEntity
  8
CSLAYER10
  6
Continuous
 62
     3
370
    15
100
AcDbLine
 10
301.36562728247
 20
119.790226
 30
0.0
 11
300.847989282469
 21
121.722077
 31
0.0
  0
HATCH
  5
567
102
{ACAD_XDICTIONARY
360
56B
102
}
330
1D
100
AcDbEntity
  8
CSLAYER10
370
     9
100
AcDbHatch
 10
0.0
 20
0.0
 30
0.0
210
0.0
220
0.0
230
1.0
  2
_USER
 70
     0
 71
     1
 91
       14
 92
        7
 72
     1
 73
     1
 93
       10
 10
149.650013
 20
216.928081
 42
-0.414213562373095
 10
149.900013
 20
217.178081
 42
0.0
 10
151.850013
 20
217.178081
 42
0.0
 10
151.850013
 20
218.928081
 42
0.414213562373095
 10
146.350013
 20
213.428081
 42
0.0
 10
147.800013
 20
213.428081
 42
0.0
 10
147.800013
 20
216.053081
 42
-0.414213562373095
 10
148.300013
 20
216.553081
 42
0.0
 10
149.400013
 20
216.553081
 42
0.414213562373095
 10
149.650013
 20
216.803081
 42
0.0
 97
       10
330
258
330
257
330
32D
330
32E
330
32C
330
25C
330
25B
330
25A
330
27C
330
259
 92
        7
 72
     1
 73
     1
 93
        9
 10
149.900013
 20
217.178081
 42
0.414213562373095
 10
149.650013
 20
216.928081
 42
0.0
 10
149.650013
 20
216.803081
 42
0.0
 10
149.650013
 20
213.428081
 42
0.0
 10
151.150013
 20
213.428081
 42
0.0
 10
151.150013
 20
214.653081
 42
-0.414213562373095
 10
151.300013
 20
214.803081
 42
0.0
 10
151.850013
 20
214.803081
 42
0.0
 10
151.850013
 20
217.178081
 42
0.0
 97
        9
330
258
330
259
330
2B8
330
32C
330
2B4
330
2B5
330
2B6
330
32D
330
257
 92
        7
 72
     1
 73
     1
 93
        6
 10
149.400013
 20
216.553081
 42
0.0
 10
148.300013
 20
216.553081
 42
0.414213562373095
 10
147.800013
 20
216.053081
 42
0.0
 10
147.800013
 20
213.428081
 42
0.0
 10
149.650013
 20
213.428081
 42
0.0
 10
149.650013
 20
216.803081
 42
-0.414213562373095
 97
        6
330
25A
330
25B
330
25C
330
32C
330
2B8
330
27C
 92
        7
 72
     1
 73
     1
 93
        5
 10
151.300013
 20
214.803081
 42
0.414213562373095
 10
151.150013
 20
214.653081
 42
0.0
 10
151.150013
 20
213.428081
 42
0.0
 10
151.850013
 20
213.428081
 42
0.0
 10
151.850013
 20
214.803081
 42
0.0
 97
        5
330
2B5
330
2B4
330
32C
330
32D
330
2B6
 92
        7
 72
     0
 73
     1
 93
        5
 10
156.650013
 20
215.678081
 10
155.900013
 20
214.803081
 10
151.850013
 20
214.803081
 10
151.850013
 20
213.428081
 10
156.650013
 20
213.428081
 97
        5
330
2B7
330
2B6
330
32D
330
32C
330
2B0
 92
        7
 72
     1
 73
     1
 93
        6
 10
155.900013
 20
214.803081
 42
0.0
 10
156.650013
 20
215.678081
 42
0.0
 10
156.650013
 20
216.1132253164195
 42
0.0601247785151729
 10
155.8733822348578
 20
217.178081
 42
0.0
 10
151.850013
 20
217.178081
 42
0.0
 10
151.850013
 20
214.803081
 42
0.0
 97
        6
330
2B7
330
2B0
330
32E
330
257
330
32D
330
2B6
 92
        7
 72
     1
 73
     1
 93
        3
 10
151.850013
 20
217.178081
 42
0.0
 10
155.8733822348578
 20
217.178081
 42
0.2080645479075946
 10
151.850013
 20
218.928081
 42
0.0
 97
        3
330
257
330
32E
330
32D
 92
        7
 72
     0
 73
     1
 93
        5
 10
155.900013
 20
212.053081
 10
156.650013
 20
211.178081
 10
156.650013
 20
213.428081
 10
151.850013
 20
213.428081
 10
151.850013
 20
212.053081
 97
        5
330
2B1
330
2B0
330
32C
330
32D
330
2B2
 92
        7
 72
     1
 73
     1
 93
        6
 10
156.650013
 20
211.178081
 42
0.0
 10
155.900013
 20
212.053081
 42
0.0
 10
151.850013
 20
212.053081
 42
0.0
 10
151.850013
 20
209.678081
 42
0.0
 10
155.8733822348578
 20
209.678081
 42
0.060124778515173
 10
156.650013
 20
210.7429366835805
 42
0.0
 97
        6
330
2B1
330
2B2
330
32D
330
261
330
32E
330
2B0
 92
        7
 72
     1
 73
     1
 93
        4
 10
155.8733822348578
 20
209.678081
 42
0.0
 10
151.850013
 20
209.678081
 42
0.0
 10
151.850013
 20
207.928081
 42
0.1128137775155224
 10
154.2391297438645
 20
208.4740804767677
 42
0.0930662679852959
 97
        3
330
261
330
32D
330
32E
 92
        7
 72
     1
 73
     1
 93
       10
 10
148.300013
 20
210.303081
 42
-0.414213562373095
 10
147.800013
 20
210.803081
 42
0.0
 10
147.800013
 20
213.428081
 42
0.0
 10
146.350013
 20
213.428081
 42
0.414213562373095
 10
151.850013
 20
207.928081
 42
0.0
 10
151.850013
 20
209.678081
 42
0.0
 10
149.900013
 20
209.678081
 42
-0.414213562373095
 10
149.650013
 20
209.928081
 42
0.0
 10
149.650013
 20
210.053081
 42
0.414213562373095
 10
149.400013
 20
210.303081
 42
0.0
 97
       10
330
25D
330
25C
330
32C
330
32E
330
32D
330
261
330
260
330
25F
330
270
330
25E
 92
        7
 72
     1
 73
     1
 93
        6
 10
147.800013
 20
210.803081
 42
0.414213562373095
 10
148.300013
 20
210.303081
 42
0.0
 10
149.400013
 20
210.303081
 42
-0.414213562373095
 10
149.650013
 20
210.053081
 42
0.0
 10
149.650013
 20
213.428081
 42
0.0
 10
147.800013
 20
213.428081
 42
0.0
 97
        6
330
25D
330
25E
330
270
330
2B8
330
32C
330
25C
 92
        7
 72
     1
 73
     1
 93
        9
 10
149.650013
 20
210.053081
 42
0.0
 10
149.650013
 20
209.928081
 42
0.414213562373095
 10
149.900013
 20
209.678081
 42
0.0
 10
151.850013
 20
209.678081
 42
0.0
 10
151.850013
 20
212.053081
 42
0.0
 10
151.300013
 20
212.053081
 42
-0.414213562373095
 10
151.150013
 20
212.203081
 42
0.0
 10
151.150013
 20
213.428081
 42
0.0
 10
149.650013
 20
213.428081
 42
0.0
 97
        9
330
25F
330
260
330
261
330
32D
330
2B2
330
2B3
330
2B4
330
32C
330
2B8
 92
        7
 72
     1
 73
     1
 93
        5
 10
151.150013
 20
212.203081
 42
0.414213562373095
 10
151.300013
 20
212.053081
 42
0.0
 10
151.850013
 20
212.053081
 42
0.0
 10
151.850013
 20
213.428081
 42
0.0
 10
151.150013
 20
213.428081
 42
0.0
 97
        5
330
2B3
330
2B2
330
32D
330
32C
330
2B4
 75
     0
 76
     0
 52
45.0
 41
2.0
 77
     0
 78
     1
 53
45.0
 43
0.0
 44
0.0
 45
-1.414213562373095
 46
1.414213562373095
 79
     0
 47
0.0
 98
       16
 10
149.9575859534394
 20
217.3928778224673
 10
151.1034322268322
 20
215.8014246649773
 10
148.8753978063462
 20
215.0693562125319
 10
151.4853809846298
 20
214.0826552548882
 10
154.5091419838607
 20
214.0189971285886
 10
153.7452444682656
 20
215.8332537281271
 10
153.4269538367676
 20
217.3610487593175
 10
155.4958429415045
 20
212.6503474131472
 10
154.7956035522089
 20
211.2816976977058
 10
153.0131760158202
 20
210.454142055811
 10
152.9813469526704
 20
209.02183421407
 10
154.63645823646
 20
209.2446376561186
 10
150.180389395488
 20
209.1173214035194
 10
149.066372185245
 20
211.8227917712524
 10
150.5305090901358
 20
211.5363302029042
 10
151.4853809846298
 20
212.682176476297
1001
ACAD
1010
0.0
1020
0.0
1030
0.0
1001
AcadAnnotative
1000
AnnotativeData
1002
{
1070
     1
1070
     0
1002
}
  0
HATCH
  5
56E
102
{ACAD_XDICTIONARY
360
56F
102
}
330
1D
100
AcDbEntity
  8
CSLAYER10
370
     9
100
AcDbHatch
 10
0.0
 20
0.0
 30
0.0
210
0.0
220
0.0
230
1.0
  2
_USER
 70
     0
 71
     1
 91
        8
 92
        7
 72
     1
 73
     1
 93
        3
 10
291.712704
 20
213.428081
 42
0.9999999999999999
 10
264.712704
 20
213.428081
 42
0.0
 10
278.212704
 20
213.428081
 42
0.0
 97
        2
330
327
330
328
 92
        7
 72
     1
 73
     1
 93
       21
 10
282.712704
 20
201.628081
 42
0.0
 10
283.212704
 20
201.628081
 42
0.0
 10
283.212704
 20
200.8881447960155
 42
0.3069789651245489
 10
291.712704
 20
213.428081
 42
0.0
 10
278.212704
 20
213.428081
 42
0.0
 10
278.212704
 20
201.904644
 42
0.0918777457281543
 10
280.3627040443922
 20
202.3030817349606
 42
0.0
 10
280.362704
 20
202.303081
 42
0.0
 10
280.362704
 20
201.303081
 42
0.0
 10
279.462704
 20
201.303081
 42
0.0
 10
279.462704
 20
200.128081
 42
0.0
 10
280.5278713805581
 20
200.128081
 42
0.0138877975405564
 10
281.262704
 20
200.2771304640121
 42
0.0
 10
281.262704
 20
202.028081
 42
-0.3541185725306981
 10
281.7379569855094
 20
202.6149695604403
 42
0.0
 10
281.737957
 20
202.61497
 42
0.0
 10
282.587704
 20
202.795589
 42
0.0
 10
282.587704
 20
202.182185
 42
0.0
 10
281.862704
 20
202.028081
 42
0.0
 10
281.862704
 20
200.430869760661
 42
0.0165163017830902
 10
282.712704
 20
200.7001589386421
 42
0.0
 97
       17
330
22E
330
22D
330
327
330
328
330
326
330
29C
330
29D
330
29E
330
29F
330
230
330
247
330
24C
330
24B
330
24A
330
249
330
248
330
22F
 92
        7
 72
     1
 73
     1
 93
       21
 10
273.212704
 20
201.628081
 42
0.0
 10
273.712704
 20
201.628081
 42
0.0
 10
273.712704
 20
200.7001589386421
 42
0.0165163017830915
 10
274.562704
 20
200.430869760661
 42
0.0
 10
274.562704
 20
202.028081
 42
0.0
 10
273.837704
 20
202.182185
 42
0.0
 10
273.837704
 20
202.795589
 42
0.0
 10
274.687451
 20
202.61497
 42
0.0
 10
274.6874510144906
 20
202.6149695604403
 42
-0.354118572530698
 10
275.162704
 20
202.028081
 42
0.0
 10
275.162704
 20
200.2771304640121
 42
0.013887797540555
 10
275.8975366194418
 20
200.128081
 42
0.0
 10
276.962704
 20
200.128081
 42
0.0
 10
276.962704
 20
201.303081
 42
0.0
 10
276.062704
 20
201.303081
 42
0.0
 10
276.062704
 20
202.303081
 42
0.0
 10
276.0627039556078
 20
202.3030817349606
 42
0.0918777457281543
 10
278.212704
 20
201.904644
 42
0.0
 10
278.212704
 20
213.428081
 42
0.0
 10
264.712704
 20
213.428081
 42
0.3069789651245489
 10
273.212704
 20
200.8881447960155
 42
0.0
 97
       17
330
232
330
231
330
327
330
241
330
242
330
243
330
244
330
245
330
246
330
230
330
299
330
29A
330
29B
330
29C
330
326
330
328
330
233
 92
        7
 72
     1
 73
     1
 93
        7
 10
280.362704
 20
201.303081
 42
0.0
 10
280.362704
 20
202.303081
 42
0.0
 10
280.3627040443922
 20
202.3030817349606
 42
-0.0918777457281543
 10
278.212704
 20
201.904644
 42
0.0
 10
278.212704
 20
200.128081
 42
0.0
 10
279.462704
 20
200.128081
 42
0.0
 10
279.462704
 20
201.303081
 42
0.0
 97
        6
330
29D
330
29C
330
326
330
230
330
29F
330
29E
 92
        7
 72
     1
 73
     1
 93
        7
 10
276.962704
 20
201.303081
 42
0.0
 10
276.962704
 20
200.128081
 42
0.0
 10
278.212704
 20
200.128081
 42
0.0
 10
278.212704
 20
201.904644
 42
-0.0918777457281543
 10
276.0627039556078
 20
202.3030817349606
 42
0.0
 10
276.062704
 20
202.303081
 42
0.0
 10
276.062704
 20
201.303081
 42
0.0
 97
        6
330
299
330
230
330
326
330
29C
330
29B
330
29A
 92
        7
 72
     1
 73
     1
 93
        8
 10
273.837704
 20
202.182185
 42
0.0
 10
274.562704
 20
202.028081
 42
0.0
 10
274.562704
 20
200.430869760661
 42
0.0114715720167254
 10
275.162704
 20
200.2771304640121
 42
0.0
 10
275.162704
 20
202.028081
 42
0.354118572530698
 10
274.6874510144906
 20
202.6149695604403
 42
0.0
 10
274.687451
 20
202.61497
 42
0.0
 10
273.837704
 20
202.795589
 42
0.0
 97
        7
330
242
330
241
330
327
330
246
330
245
330
244
330
243
 92
        7
 72
     1
 73
     1
 93
        8
 10
281.862704
 20
200.430869760661
 42
0.0
 10
281.862704
 20
202.028081
 42
0.0
 10
282.587704
 20
202.182185
 42
0.0
 10
282.587704
 20
202.795589
 42
0.0
 10
281.737957
 20
202.61497
 42
0.0
 10
281.7379569855094
 20
202.6149695604403
 42
0.3541185725306981
 10
281.262704
 20
202.028081
 42
0.0
 10
281.262704
 20
200.2771304640121
 42
0.0114715720167254
 97
        7
330
248
330
249
330
24A
330
24B
330
24C
330
247
330
327
 92
        7
 72
     1
 73
     1
 93
        4
 10
273.712704
 20
201.628081
 42
0.0
 10
273.212704
 20
201.628081
 42
0.0
 10
273.212704
 20
200.8881447960155
 42
0.0098930241492274
 10
273.712704
 20
200.7001589386421
 42
0.0
 97
        4
330
232
330
233
330
327
330
231
 75
     0
 76
     0
 52
45.0
 41
2.0
 77
     0
 78
     1
 53
45.0
 43
0.0
 44
0.0
 45
-1.414213562373095
 46
1.414213562373095
 79
     0
 47
0.0
 98
        9
 10
276.7918946994334
 20
223.1962255797227
 10
272.0740066410342
 20
217.8886015140236
 10
282.2174659665925
 20
208.9246142030651
 10
273.9021882636639
 20
210.4579278220448
 10
278.6440343473596
 20
201.7381280766089
 10
277.3770233941763
 20
201.6459818254683
 10
275.0503305528758
 20
201.4386527604019
 10
282.1225553279176
 20
202.3140421462377
 10
273.4377711579152
 20
201.5077624487573
1001
ACAD
1010
0.0
1020
0.0
1030
0.0
1001
AcadAnnotative
1000
AnnotativeData
1002
{
1070
     1
1070
     0
1002
}
  0
TEXT
  5
5CD
330
1D
100
AcDbEntity
  8
CSLAYER10
 62
     3
100
AcDbText
 10
83.131145795669
 20
274.310976128877
 30
0.0
 40
6.0
  1
SM-G2-60
  7
FX_FONT
100
AcDbText
  0
LINE
  5
5D1
330
1D
100
AcDbEntity
  8
CSLAYER10
100
AcDbLine
 10
81.658839636993
 20
271.556635106541
 30
0.0
 11
133.208894593013
 21
271.556635106541
 31
0.0
  0
LINE
  5
5D5
330
1D
100
AcDbEntity
  8
CSLAYER10
  6
Continuous
 62
     3
370
    15
100
AcDbLine
 10
188.570318011109
 20
81.41384
 30
0.0
 11
186.638466011109
 21
80.896202
 31
0.0
  0
LINE
  5
5D6
330
1D
100
AcDbEntity
  8
CSLAYER10
  6
Continuous
 62
     3
370
    15
100
AcDbLine
 10
188.570318011109
 20
81.41384
 30
0.0
 11
186.638466011109
 21
81.931478
 31
0.0
  0
LINE
  5
5D7
330
1D
100
AcDbEntity
  8
CSLAYER10
  6
Continuous
 62
     3
370
    15
100
AcDbLine
 10
188.570318011109
 20
81.41384
 30
0.0
 11
180.621497011109
 21
81.41384
 31
0.0
  0
LINE
  5
5D8
330
1D
100
AcDbEntity
  8
CSLAYER10
  6
Continuous
 62
     3
370
    15
100
AcDbLine
 10
189.670318011109
 20
81.41384
 30
0.0
 11
191.602169011109
 21
80.896202
 31
0.0
  0
LINE
  5
5D9
330
1D
100
AcDbEntity
  8
CSLAYER10
  6
Continuous
 62
     3
370
    15
100
AcDbLine
 10
189.670318011109
 20
81.41384
 30
0.0
 11
191.602169011109
 21
81.931478
 31
0.0
  0
LINE
  5
5DA
330
1D
100
AcDbEntity
  8
CSLAYER10
  6
Continuous
 62
     3
370
    15
100
AcDbLine
 10
192.170318011109
 20
81.41384
 30
0.0
 11
189.670318011109
 21
81.41384
 31
0.0
  0
LINE
  5
5DB
330
1D
100
AcDbEntity
  8
CSLAYER10
  6
Continuous
 62
     3
370
    15
100
AcDbLine
 10
189.670318011109
 20
81.41384
 30
0.0
 11
188.570318011109
 21
81.41384
 31
0.0
  0
LINE
  5
5DC
330
1D
100
AcDbEntity
  8
CSLAYER10
  6
Continuous
 62
     3
370
    15
100
AcDbLine
 10
189.670318011109
 20
89.78884
 30
0.0
 11
189.670318011109
 21
80.91384
 31
0.0
  0
TEXT
  5
5DD
330
1D
100
AcDbEntity
  8
CSLAYER10
 62
     3
370
    15
100
AcDbText
 10
181.068300540063
 20
82.45532871737
 30
0.0
 40
3.0
  1
2.2
 50
0.0
 41
0.617647058824
  7
FX_FONT
 72
     5
 11
186.318300540063
 21
82.45532871737
 31
0.0
100
AcDbText
  0
LINE
  5
5DE
330
1D
100
AcDbEntity
  8
CSLAYER10
  6
Continuous
 62
     3
370
    15
100
AcDbLine
 10
188.570318011109
 20
73.91384
 30
0.0
 11
190.502169011109
 21
73.396202
 31
0.0
  0
LINE
  5
5DF
330
1D
100
AcDbEntity
  8
CSLAYER10
  6
Continuous
 62
     3
370
    15
100
AcDbLine
 10
188.570318011109
 20
73.91384
 30
0.0
 11
190.502169011109
 21
74.431478
 31
0.0
  0
LINE
  5
5E0
330
1D
100
AcDbEntity
  8
CSLAYER10
  6
Continuous
 62
     3
370
    15
100
AcDbLine
 10
195.420318011109
 20
73.91384
 30
0.0
 11
193.488466011109
 21
73.396202
 31
0.0
  0
LINE
  5
5E1
330
1D
100
AcDbEntity
  8
CSLAYER10
  6
Continuous
 62
     3
370
    15
100
AcDbLine
 10
195.420318011109
 20
73.91384
 30
0.0
 11
193.488466011109
 21
74.431478
 31
0.0
  0
LINE
  5
5E2
330
1D
100
AcDbEntity
  8
CSLAYER10
  6
Continuous
 62
     3
370
    15
100
AcDbLine
 10
195.420318011109
 20
73.91384
 30
0.0
 11
188.570318011109
 21
73.91384
 31
0.0
  0
LINE
  5
5E3
330
1D
100
AcDbEntity
  8
CSLAYER10
  6
Continuous
 62
     3
370
    15
100
AcDbLine
 10
188.570318011109
 20
88.41384
 30
0.0
 11
188.570318011109
 21
73.41384
 31
0.0
  0
LINE
  5
5E4
330
1D
100
AcDbEntity
  8
CSLAYER10
  6
Continuous
 62
     3
370
    15
100
AcDbLine
 10
195.420318011109
 20
98.28884
 30
0.0
 11
195.420318011109
 21
73.41384
 31
0.0
  0
TEXT
  5
5E5
330
1D
100
AcDbEntity
  8
CSLAYER10
 62
     3
370
    15
100
AcDbText
 10
189.969828542955
 20
75.051003554463
 30
0.0
 40
3.0
  1
14
 41
0.636363636364
  7
FX_FONT
 72
     5
 11
193.469828542955
 21
75.051003554463
 31
0.0
100
AcDbText
  0
TEXT
  5
5E6
330
1D
100
AcDbEntity
  8
CSLAYER10
 62
     3
370
    15
100
AcDbText
 10
138.145435304232
 20
48.009152217917
 30
0.0
 40
3.0
  1
22
 41
0.636363636364
  7
FX_FONT
 72
     5
 11
141.645435304232
 21
48.009152217917
 31
0.0
100
AcDbText
  0
TEXT
  5
5E7
330
1D
100
AcDbEntity
  8
CSLAYER10
 62
     3
370
    15
100
AcDbText
 10
118.426909265422
 20
59.318677853314
 30
0.0
 40
3.0
  1
4
 50
90.0
 41
0.7
  7
FX_FONT
 72
     5
 11
118.426909265422
 21
61.068677853314
 31
0.0
100
AcDbText
  0
LINE
  5
5E8
330
1D
100
AcDbEntity
  8
CSLAYER10
  6
Continuous
 62
     3
370
    15
100
AcDbLine
 10
137.263696050471
 20
81.452796
 30
0.0
 11
135.331844050471
 21
80.935158
 31
0.0
  0
LINE
  5
5E9
330
1D
100
AcDbEntity
  8
CSLAYER10
  6
Continuous
 62
     3
370
    15
100
AcDbLine
 10
137.263696050471
 20
81.452796
 30
0.0
 11
135.331844050471
 21
81.970435
 31
0.0
  0
LINE
  5
5EA
330
1D
100
AcDbEntity
  8
CSLAYER10
  6
Continuous
 62
     3
370
    15
100
AcDbLine
 10
137.263696050471
 20
81.452796
 30
0.0
 11
133.632196050471
 21
81.452796
 31
0.0
  0
LINE
  5
5EB
330
1D
100
AcDbEntity
  8
CSLAYER10
  6
Continuous
 62
     3
370
    15
100
AcDbLine
 10
139.763696050471
 20
81.452796
 30
0.0
 11
137.263696050471
 21
81.452796
 31
0.0
  0
LINE
  5
5EC
330
1D
100
AcDbEntity
  8
CSLAYER10
  6
Continuous
 62
     3
370
    15
100
AcDbLine
 10
137.263696050471
 20
98.78884
 30
0.0
 11
137.263696050471
 21
80.452796
 31
0.0
  0
TEXT
  5
5ED
330
1D
100
AcDbEntity
  8
CSLAYER10
 62
     3
370
    15
100
AcDbText
 10
134.446564816335
 20
82.690571943846
 30
0.0
 40
3.0
  1
5
 41
0.7
  7
FX_FONT
 72
     5
 11
136.196564816335
 21
82.690571943846
 31
0.0
100
AcDbText
  0
LINE
  5
5EE
330
1D
100
AcDbEntity
  8
CSLAYER10
  6
Continuous
 62
     3
370
    15
100
AcDbLine
 10
139.763696050471
 20
81.452796
 30
0.0
 11
141.695548050471
 21
80.935158
 31
0.0
  0
LINE
  5
5EF
330
1D
100
AcDbEntity
  8
CSLAYER10
  6
Continuous
 62
     3
370
    15
100
AcDbLine
 10
139.763696050471
 20
81.452796
 30
0.0
 11
141.695548050471
 21
81.970435
 31
0.0
  0
LINE
  5
5F0
330
1D
100
AcDbEntity
  8
CSLAYER10
  6
Continuous
 62
     3
370
    15
100
AcDbLine
 10
144.013696050471
 20
81.452796
 30
0.0
 11
142.081844050471
 21
80.935158
 31
0.0
  0
LINE
  5
5F1
330
1D
100
AcDbEntity
  8
CSLAYER10
  6
Continuous
 62
     3
370
    15
100
AcDbLine
 10
144.013696050471
 20
81.452796
 30
0.0
 11
142.081844050471
 21
81.970435
 31
0.0
  0
LINE
  5
5F2
330
1D
100
AcDbEntity
  8
CSLAYER10
  6
Continuous
 62
     3
370
    15
100
AcDbLine
 10
152.909626214977
 20
81.452796
 30
0.0
 11
139.763696050471
 21
81.452796
 31
0.0
  0
LINE
  5
5F3
330
1D
100
AcDbEntity
  8
CSLAYER10
  6
Continuous
 62
     3
370
    15
100
AcDbLine
 10
139.763696050471
 20
86.81558
 30
0.0
 11
139.763696050471
 21
80.452796
 31
0.0
  0
LINE
  5
5F4
330
1D
100
AcDbEntity
  8
CSLAYER10
  6
Continuous
 62
     3
370
    15
100
AcDbLine
 10
144.013696050471
 20
98.78884
 30
0.0
 11
144.013696050471
 21
80.452796
 31
0.0
  0
TEXT
  5
5F5
330
1D
100
AcDbEntity
  8
CSLAYER10
 62
     3
370
    15
100
AcDbText
 10
147.312611086593
 20
82.069585552739
 30
0.0
 40
3.0
  1
8.5
 41
0.617647058824
  7
FX_FONT
 72
     5
 11
152.562611086593
 21
82.069585552739
 31
0.0
100
AcDbText
  0
LINE
  5
5F6
330
1D
100
AcDbEntity
  8
CSLAYER10
  6
Continuous
 62
     3
370
    15
100
AcDbLine
 10
127.263696050471
 20
73.91384
 30
0.0
 11
129.195548050471
 21
73.396202
 31
0.0
  0
LINE
  5
5F7
330
1D
100
AcDbEntity
  8
CSLAYER10
  6
Continuous
 62
     3
370
    15
100
AcDbLine
 10
127.263696050471
 20
73.91384
 30
0.0
 11
129.195548050471
 21
74.431478
 31
0.0
  0
LINE
  5
5F8
330
1D
100
AcDbEntity
  8
CSLAYER10
  6
Continuous
 62
     3
370
    15
100
AcDbLine
 10
132.763696050471
 20
73.91384
 30
0.0
 11
130.831844050471
 21
73.396202
 31
0.0
  0
LINE
  5
5F9
330
1D
100
AcDbEntity
  8
CSLAYER10
  6
Continuous
 62
     3
370
    15
100
AcDbLine
 10
132.763696050471
 20
73.91384
 30
0.0
 11
130.831844050471
 21
74.431478
 31
0.0
  0
LINE
  5
5FA
330
1D
100
AcDbEntity
  8
CSLAYER10
  6
Continuous
 62
     3
370
    15
100
AcDbLine
 10
132.763696050471
 20
73.91384
 30
0.0
 11
127.263696050471
 21
73.91384
 31
0.0
  0
LINE
  5
5FB
330
1D
100
AcDbEntity
  8
CSLAYER10
  6
Continuous
 62
     3
370
    15
100
AcDbLine
 10
127.263696050471
 20
97.78884
 30
0.0
 11
127.263696050471
 21
72.91384
 31
0.0
  0
TEXT
  5
5FC
330
1D
100
AcDbEntity
  8
CSLAYER10
 62
     3
370
    15
100
AcDbText
 10
127.90836173474
 20
74.830254290525
 30
0.0
 40
3.0
  1
11
 41
0.7
  7
FX_FONT
 72
     5
 11
131.40836173474
 21
74.830254290525
 31
0.0
100
AcDbText
  0
LINE
  5
5FD
330
1D
100
AcDbEntity
  8
CSLAYER10
  6
Continuous
 62
     3
370
    15
100
AcDbLine
 10
132.763696050471
 20
73.91384
 30
0.0
 11
134.695548050471
 21
73.396202
 31
0.0
  0
LINE
  5
5FE
330
1D
100
AcDbEntity
  8
CSLAYER10
  6
Continuous
 62
     3
370
    15
100
AcDbLine
 10
132.763696050471
 20
73.91384
 30
0.0
 11
134.695548050471
 21
74.431478
 31
0.0
  0
LINE
  5
5FF
330
1D
100
AcDbEntity
  8
CSLAYER10
  6
Continuous
 62
     3
370
    15
100
AcDbLine
 10
146.763696050471
 20
73.91384
 30
0.0
 11
144.831844050471
 21
73.396202
 31
0.0
  0
LINE
  5
600
330
1D
100
AcDbEntity
  8
CSLAYER10
  6
Continuous
 62
     3
370
    15
100
AcDbLine
 10
146.763696050471
 20
73.91384
 30
0.0
 11
144.831844050471
 21
74.431478
 31
0.0
  0
LINE
  5
601
330
1D
100
AcDbEntity
  8
CSLAYER10
  6
Continuous
 62
     3
370
    15
100
AcDbLine
 10
146.763696050471
 20
73.91384
 30
0.0
 11
132.763696050471
 21
73.91384
 31
0.0
  0
LINE
  5
602
330
1D
100
AcDbEntity
  8
CSLAYER10
  6
Continuous
 62
     3
370
    15
100
AcDbLine
 10
132.763696050471
 20
88.41384
 30
0.0
 11
132.763696050471
 21
72.91384
 31
0.0
  0
LINE
  5
603
330
1D
100
AcDbEntity
  8
CSLAYER10
  6
Continuous
 62
     3
370
    15
100
AcDbLine
 10
146.763696050471
 20
88.41384
 30
0.0
 11
146.763696050471
 21
72.91384
 31
0.0
  0
TEXT
  5
604
330
1D
100
AcDbEntity
  8
CSLAYER10
 62
     3
370
    15
100
AcDbText
 10
137.731024344087
 20
74.953381258474
 30
0.0
 40
3.0
  1
28
 41
0.636363636364
  7
FX_FONT
 72
     5
 11
141.231024344087
 21
74.953381258474
 31
0.0
100
AcDbText
  0
ENDSEC
  0
SECTION
  2
OBJECTS
  0
DICTIONARY
  5
C
330
0
100
AcDbDictionary
281
     1
  3
ACAD_GROUP
350
D
  3
ACAD_LAYOUT
350
1A
  3
ACAD_MATERIAL
350
36F
  3
ACAD_MLEADERSTYLE
350
375
  3
ACAD_MLINESTYLE
350
17
  3
ACAD_PLOTSETTINGS
350
19
  3
ACAD_PLOTSTYLENAME
350
E
  3
ACAD_SCALELIST
350
330
  3
ACAD_TABLESTYLE
350
373
  3
ACAD_VISUALSTYLE
350
356
  3
AcDbVariableDictionary
350
50E
  3
DWGPROPS
350
6FF
  0
DICTIONARY
  5
700
330
8
100
AcDbDictionary
280
     1
281
     1
  3
ACAD_XREC_ROUNDTRIP
360
701
  0
DICTIONARY
  5
569
330
1D
100
AcDbDictionary
280
     1
281
     1
  3
ACAD_SORTENTS
360
56A
  0
DICTIONARY
  5
56B
330
567
100
AcDbDictionary
280
     1
281
     1
  3
AcDbContextDataManager
360
56C
  0
DICTIONARY
  5
56F
330
56E
100
AcDbDictionary
280
     1
281
     1
  3
AcDbContextDataManager
360
570
  0
DICTIONARY
  5
D
102
{ACAD_REACTORS
330
C
102
}
330
C
100
AcDbDictionary
281
     1
  0
DICTIONARY
  5
1A
102
{ACAD_REACTORS
330
C
102
}
330
C
100
AcDbDictionary
281
     1
  3
Layout1
350
1C
  3
Model
350
1E
  0
DICTIONARY
  5
36F
102
{ACAD_REACTORS
330
C
102
}
330
C
100
AcDbDictionary
281
     1
  3
ByBlock
350
371
  3
ByLayer
350
370
  3
Global
350
372
  0
DICTIONARY
  5
375
102
{ACAD_REACTORS
330
C
102
}
330
C
100
AcDbDictionary
281
     1
  3
Standard
350
376
  0
DICTIONARY
  5
17
102
{ACAD_REACTORS
330
C
102
}
330
C
100
AcDbDictionary
281
     1
  3
Standard
350
18
  0
DICTIONARY
  5
19
102
{ACAD_REACTORS
330
C
102
}
330
C
100
AcDbDictionary
281
     1
  0
ACDBDICTIONARYWDFLT
  5
E
102
{ACAD_REACTORS
330
C
102
}
330
C
100
AcDbDictionary
281
     1
  3
Normal
350
F
100
AcDbDictionaryWithDefault
340
F
  0
DICTIONARY
  5
330
102
{ACAD_REACTORS
330
C
102
}
330
C
100
AcDbDictionary
281
     1
  3
A0
350
331
  3
A1
350
332
  3
A2
350
333
  3
A3
350
334
  3
A4
350
335
  3
A5
350
336
  3
A6
350
337
  3
A7
350
338
  3
A8
350
339
  3
A9
350
33A
  3
B0
350
33B
  3
B1
350
33C
  3
B2
350
33D
  3
B3
350
33E
  3
B4
350
33F
  3
B5
350
340
  3
B6
350
341
  3
B7
350
342
  3
B8
350
343
  3
B9
350
344
  3
C0
350
345
  3
C1
350
346
  3
C2
350
347
  3
C3
350
348
  3
C4
350
349
  3
C5
350
34A
  3
C6
350
34B
  3
C7
350
34C
  3
C8
350
34D
  3
C9
350
34E
  3
D0
350
34F
  3
D1
350
350
  3
D2
350
351
  0
DICTIONARY
  5
373
102
{ACAD_REACTORS
330
C
102
}
330
C
100
AcDbDictionary
281
     1
  3
Standard
350
374
  0
DICTIONARY
  5
356
102
{ACAD_REACTORS
330
C
102
}
330
C
100
AcDbDictionary
281
     1
  3
2dWireframe
350
35B
  3
Basic
350
35E
  3
Brighten
350
362
  3
ColorChange
350
366
  3
Conceptual
350
360
  3
Dim
350
361
  3
EdgeColorOff
350
369
  3
Facepattern
350
365
  3
Flat
350
357
  3
FlatWithEdges
350
358
  3
Gouraud
350
359
  3
GouraudWithEdges
350
35A
  3
Hidden
350
35D
  3
JitterOff
350
367
  3
Linepattern
350
364
  3
Modeling
350
377
  3
OverhangOff
350
368
  3
Realistic
350
35F
  3
Shaded
350
36E
  3
Shaded with edges
350
36D
  3
Shades of Gray
350
36A
  3
Sketchy
350
36B
  3
Thicken
350
363
  3
Wireframe
350
35C
  3
X-Ray
350
36C
  0
DICTIONARY
  5
50E
102
{ACAD_REACTORS
330
C
102
}
330
C
100
AcDbDictionary
281
     1
  3
CANNOSCALE
350
6BF
  3
CMLEADERSTYLE
350
510
  3
CTABLESTYLE
350
50F
  3
DIMASSOC
350
514
  3
HIDETEXT
350
515
  3
MSLTSCALE
350
511
  0
XRECORD
  5
6FF
102
{ACAD_REACTORS
330
C
102
}
330
C
100
AcDbXrecord
280
     1
  1
DWGPROPS COOKIE
  2

  3

  4

  6

  7

  8
fujika.waniguchi
  9

300
=
301
=
302
=
303
=
304
=
305
=
306
=
307
=
308
=
309
=
 40
0.0
 41
2457846.625
 42
2458085.266004224
  1

 90
        0
  0
XRECORD
  5
701
102
{ACAD_REACTORS
330
700
102
}
330
700
100
AcDbXrecord
280
     1
102
VTR_0.000_0.000_1.000_1.000_GRIDDISPLAY
 70
     3
102
VTR_0.000_0.000_1.000_1.000_GRIDMAJOR
 70
     5
102
VTR_0.000_0.000_1.000_1.000_DEFAULTLIGHTING
280
     1
102
VTR_0.000_0.000_1.000_1.000_DEFAULTLIGHTINGTYPE
 70
     1
102
VTR_0.000_0.000_1.000_1.000_BRIGHTNESS
141
0.0
102
VTR_0.000_0.000_1.000_1.000_CONTRAST
142
0.0
  0
SORTENTSTABLE
  5
56A
102
{ACAD_REACTORS
330
569
102
}
330
569
100
AcDbSortentsTable
330
1D
331
0
  5
2C8
331
22D
  5
22E
331
22E
  5
22F
331
22F
  5
230
331
230
  5
231
331
231
  5
232
331
232
  5
233
331
233
  5
234
331
234
  5
235
331
235
  5
236
331
236
  5
237
331
237
  5
238
331
238
  5
239
331
239
  5
23A
331
23A
  5
23B
331
23B
  5
23C
331
23C
  5
23D
331
23D
  5
23E
331
23E
  5
23F
331
23F
  5
240
331
240
  5
241
331
241
  5
242
331
242
  5
243
331
243
  5
244
331
244
  5
245
331
245
  5
246
331
246
  5
247
331
247
  5
248
331
248
  5
249
331
249
  5
24A
331
24A
  5
24B
331
24B
  5
24C
331
24C
  5
24D
331
24D
  5
24E
331
24E
  5
24F
331
24F
  5
250
331
250
  5
251
331
251
  5
252
331
252
  5
253
331
253
  5
254
331
254
  5
255
331
255
  5
256
331
256
  5
257
331
257
  5
259
331
258
  5
25A
331
259
  5
25B
331
25A
  5
25C
331
25B
  5
25D
331
25C
  5
25E
331
25D
  5
25F
331
25E
  5
260
331
25F
  5
261
331
260
  5
262
331
261
  5
263
331
262
  5
264
331
263
  5
265
331
264
  5
266
331
265
  5
267
331
266
  5
268
331
267
  5
269
331
268
  5
26A
331
269
  5
26B
331
26A
  5
26C
331
26B
  5
26D
331
26C
  5
26E
331
26D
  5
26F
331
26E
  5
270
331
26F
  5
271
331
270
  5
272
331
271
  5
273
331
272
  5
274
331
273
  5
275
331
274
  5
276
331
275
  5
277
331
276
  5
278
331
277
  5
279
331
278
  5
27A
331
279
  5
27B
331
27A
  5
27C
331
27B
  5
27D
331
27C
  5
27E
331
27D
  5
27F
331
27E
  5
280
331
27F
  5
281
331
280
  5
282
331
281
  5
283
331
282
  5
284
331
283
  5
285
331
284
  5
286
331
285
  5
287
331
286
  5
288
331
287
  5
289
331
288
  5
28A
331
289
  5
28B
331
28A
  5
28C
331
28B
  5
28D
331
28C
  5
28E
331
28D
  5
28F
331
28E
  5
290
331
28F
  5
291
331
290
  5
292
331
291
  5
293
331
292
  5
294
331
293
  5
295
331
294
  5
296
331
295
  5
297
331
296
  5
298
331
297
  5
299
331
298
  5
29A
331
299
  5
29B
331
29A
  5
29C
331
29B
  5
29D
331
29C
  5
29E
331
29D
  5
29F
331
29E
  5
2A0
331
29F
  5
2A1
331
2A0
  5
2A2
331
2A1
  5
2A3
331
2A2
  5
2A4
331
2A3
  5
2A5
331
2A4
  5
2A6
331
2A5
  5
2A7
331
2A6
  5
2A8
331
2A7
  5
2A9
331
2A8
  5
2AA
331
2A9
  5
2AB
331
2AA
  5
2AC
331
2AB
  5
2AD
331
2AC
  5
2AE
331
2AD
  5
2AF
331
2AE
  5
2B0
331
2AF
  5
2B1
331
2B0
  5
2B2
331
2B1
  5
2B3
331
2B2
  5
2B4
331
2B3
  5
2B5
331
2B4
  5
2B6
331
2B5
  5
2B7
331
2B6
  5
2B8
331
2B7
  5
2B9
331
2B8
  5
2BA
331
2B9
  5
2BB
331
2BA
  5
2BC
331
2BB
  5
2BD
331
2BC
  5
2BE
331
2BD
  5
2BF
331
2BE
  5
2C0
331
2BF
  5
2C1
331
2C0
  5
2C2
331
2C1
  5
2C3
331
2C2
  5
2C4
331
2C3
  5
2C5
331
2C4
  5
2C6
331
2C5
  5
2C7
331
2D3
  5
2D5
331
2F1
  5
2F3
331
2FD
  5
2FF
331
2FE
  5
300
331
2FF
  5
301
331
300
  5
302
331
301
  5
303
331
302
  5
304
331
303
  5
305
331
321
  5
323
331
322
  5
324
331
323
  5
325
331
324
  5
326
331
325
  5
327
331
326
  5
328
331
327
  5
329
331
328
  5
32A
331
329
  5
32B
331
32A
  5
32C
331
32B
  5
32D
331
32C
  5
32E
331
32D
  5
32F
331
32E
  5
379
331
379
  5
37B
331
37A
  5
37C
331
37B
  5
37D
331
37C
  5
37E
331
37D
  5
37F
331
37E
  5
380
331
37F
  5
381
331
380
  5
382
331
381
  5
383
331
382
  5
384
331
383
  5
385
331
384
  5
386
331
385
  5
387
331
386
  5
388
331
387
  5
389
331
388
  5
38A
331
389
  5
38B
331
38A
  5
38C
331
38B
  5
38D
331
38C
  5
38E
331
38D
  5
38F
331
38E
  5
390
331
38F
  5
391
331
390
  5
392
331
391
  5
393
331
392
  5
394
331
393
  5
395
331
394
  5
396
331
395
  5
397
331
396
  5
398
331
397
  5
399
331
398
  5
39A
331
399
  5
39B
331
39A
  5
39C
331
39B
  5
39D
331
39C
  5
39E
331
39D
  5
39F
331
39E
  5
3A0
331
39F
  5
3A1
331
3A0
  5
3A2
331
3A1
  5
3A3
331
3A2
  5
3A4
331
3A3
  5
3A5
331
3A4
  5
3A6
331
3A5
  5
3A7
331
3A6
  5
3A8
331
3A7
  5
3A9
331
3A8
  5
3AA
331
3A9
  5
3AB
331
3AA
  5
3AC
331
3AB
  5
3AD
331
3AC
  5
3AE
331
3AD
  5
3AF
331
3AE
  5
3B0
331
3AF
  5
3B1
331
3B0
  5
3B2
331
3B1
  5
3B3
331
3B2
  5
3B4
331
3B3
  5
3B5
331
3B4
  5
3B6
331
3B5
  5
3B7
331
3B6
  5
3B8
331
3B8
  5
3BA
331
3B9
  5
3BB
331
3BA
  5
3BC
331
3BB
  5
3BD
331
3BC
  5
3BE
331
3BD
  5
3BF
331
3BE
  5
3C0
331
3C0
  5
3C2
331
3C1
  5
3C3
331
3C2
  5
3C4
331
3C3
  5
3C5
331
3C4
  5
3C6
331
3C5
  5
3C7
331
3C6
  5
3C8
331
3C7
  5
3C9
331
3C8
  5
3CA
331
3C9
  5
3CB
331
3CA
  5
3CC
331
3CB
  5
3CD
331
3CC
  5
3CE
331
3CD
  5
3CF
331
3CE
  5
3D0
331
3CF
  5
3D1
331
3D0
  5
3D2
331
3E2
  5
3E4
331
3E3
  5
3E5
331
3E4
  5
3E6
331
3E5
  5
3E7
331
3E6
  5
3E8
331
3E7
  5
3E9
331
3E8
  5
3EA
331
3E9
  5
3EB
331
3EA
  5
3EC
331
3EB
  5
3ED
331
3EC
  5
3EE
331
3ED
  5
3EF
331
3EE
  5
3F0
331
3EF
  5
3F1
331
3F0
  5
3F2
331
3F1
  5
3F3
331
3F2
  5
3F4
331
3F3
  5
3F5
331
3F4
  5
3F6
331
3F5
  5
3F7
331
3F6
  5
3F8
331
3F7
  5
3F9
331
3F8
  5
3FA
331
3F9
  5
3FB
331
3FA
  5
3FC
331
3FB
  5
3FD
331
3FC
  5
3FE
331
3FD
  5
3FF
331
3FE
  5
400
331
3FF
  5
401
331
400
  5
402
331
401
  5
403
331
402
  5
404
331
403
  5
405
331
404
  5
406
331
405
  5
407
331
406
  5
408
331
407
  5
409
331
408
  5
40A
331
409
  5
40B
331
40A
  5
40C
331
40B
  5
40D
331
40C
  5
40E
331
40D
  5
40F
331
40E
  5
410
331
40F
  5
411
331
410
  5
412
331
411
  5
413
331
412
  5
414
331
413
  5
415
331
414
  5
416
331
415
  5
417
331
416
  5
418
331
417
  5
419
331
418
  5
41A
331
419
  5
41B
331
41A
  5
41C
331
41B
  5
41D
331
41C
  5
41E
331
41E
  5
420
331
41F
  5
421
331
420
  5
422
331
421
  5
423
331
422
  5
424
331
423
  5
425
331
424
  5
426
331
425
  5
427
331
426
  5
428
331
427
  5
429
331
428
  5
42A
331
429
  5
42B
331
42A
  5
42C
331
42B
  5
42D
331
42C
  5
42E
331
42D
  5
42F
331
42E
  5
430
331
42F
  5
431
331
430
  5
432
331
431
  5
433
331
432
  5
434
331
433
  5
435
331
434
  5
436
331
444
  5
446
331
445
  5
447
331
446
  5
448
331
447
  5
449
331
448
  5
44A
331
449
  5
44B
331
44A
  5
44C
331
44B
  5
44D
331
44C
  5
44E
331
44D
  5
44F
331
44E
  5
450
331
44F
  5
451
331
450
  5
452
331
451
  5
453
331
452
  5
454
331
453
  5
455
331
454
  5
456
331
455
  5
457
331
456
  5
458
331
457
  5
459
331
458
  5
45A
331
459
  5
45B
331
45A
  5
45C
331
45B
  5
45D
331
45C
  5
45E
331
45D
  5
45F
331
45E
  5
460
331
45F
  5
461
331
460
  5
462
331
461
  5
463
331
463
  5
465
331
464
  5
466
331
465
  5
467
331
466
  5
468
331
467
  5
469
331
468
  5
46A
331
469
  5
46B
331
4A1
  5
4E2
331
4A2
  5
4E3
331
4E4
  5
4E6
331
4E5
  5
4E7
331
4E6
  5
4E8
331
4E7
  5
4E9
331
4E8
  5
4EA
331
4E9
  5
4EB
331
4EA
  5
567
331
4EB
  5
56E
331
567
  5
258
331
56E
  5
22D
  0
DICTIONARY
  5
56C
102
{ACAD_REACTORS
330
56B
102
}
330
56B
100
AcDbDictionary
281
     1
  3
ACDB_ANNOTATIONSCALES
350
56D
  0
DICTIONARY
  5
570
102
{ACAD_REACTORS
330
56F
102
}
330
56F
100
AcDbDictionary
281
     1
  3
ACDB_ANNOTATIONSCALES
350
571
  0
LAYOUT
  5
1C
102
{ACAD_REACTORS
330
1A
102
}
330
1A
100
AcDbPlotSettings
  1

  2
none_device
  4

  6

 40
0.0
 41
0.0
 42
0.0
 43
0.0
 44
0.0
 45
0.0
 46
0.0
 47
0.0
 48
0.0
 49
0.0
140
0.0
141
0.0
142
1.0
143
1.0
 70
   688
 72
     0
 73
     0
 74
     5
  7
monochrome.ctb
 75
    16
147
1.0
148
0.0
149
0.0
100
AcDbLayout
  1
Layout1
 70
     1
 71
     1
 10
0.0
 20
0.0
 11
12.0
 21
9.0
 12
0.0
 22
0.0
 32
0.0
 14
1.000000000000E+20
 24
1.000000000000E+20
 34
1.000000000000E+20
 15
-1.000000000000E+20
 25
-1.000000000000E+20
 35
-1.000000000000E+20
146
0.0
 13
0.0
 23
0.0
 33
0.0
 16
1.0
 26
0.0
 36
0.0
 17
0.0
 27
1.0
 37
0.0
 76
     0
330
1B
  0
LAYOUT
  5
1E
102
{ACAD_REACTORS
330
1A
102
}
330
1A
100
AcDbPlotSettings
  1

  2
RICOH imagio MP C3500 RPCS
  4
A3
  6

 40
5.08
 41
5.08
 42
5.08
 43
5.08
 44
297.0
 45
420.0
 46
5.837415982076
 47
0.0
 48
44.4414
 49
33.3405
140
344.2645
141
296.3622
142
1.0
143
1.768159953048
 70
  1716
 72
     1
 73
     1
 74
     0
  7
monochrome.ctb
 75
     0
147
0.565559692875
148
172.037326596949
149
45.133069180157
100
AcDbLayout
  1
Model
 70
     1
 71
     0
 10
0.0
 20
0.0
 11
12.0
 21
9.0
 12
0.0
 22
0.0
 32
0.0
 14
81.658839636993
 24
46.582883
 34
0.0
 15
309.141568196659
 25
280.310976128877
 35
0.0
146
0.0
 13
0.0
 23
0.0
 33
0.0
 16
1.0
 26
0.0
 36
0.0
 17
0.0
 27
1.0
 37
0.0
 76
     0
330
1D
331
3B
  0
MATERIAL
  5
371
102
{ACAD_REACTORS
330
36F
102
}
102
{ACAD_XDICTIONARY
360
736
102
}
330
36F
100
AcDbMaterial
  1
ByBlock
  0
MATERIAL
  5
370
102
{ACAD_REACTORS
330
36F
102
}
102
{ACAD_XDICTIONARY
360
734
102
}
330
36F
100
AcDbMaterial
  1
ByLayer
  0
MATERIAL
  5
372
102
{ACAD_REACTORS
330
36F
102
}
102
{ACAD_XDICTIONARY
360
738
102
}
330
36F
100
AcDbMaterial
  1
Global
  0
MLEADERSTYLE
  5
376
102
{ACAD_REACTORS
330
375
102
}
102
{ACAD_XDICTIONARY
360
73A
102
}
330
375
100
AcDbMLeaderStyle
170
     2
171
     1
172
     0
 90
        2
 40
0.0
 41
0.0
173
     1
 91
-1056964608
340
14
 92
       -2
290
     1
 42
0.09
291
     1
 43
0.36
  3
Standard
341
0
 44
0.18
300

342
11
174
     1
178
     6
175
     1
176
     0
 93
-1056964608
 45
0.18
292
     0
297
     0
 46
0.18
343
0
 94
-1056964608
 47
1.0
 49
1.0
140
1.0
293
     1
141
0.0
294
     1
177
     0
142
1.0
295
     0
296
     0
143
0.125
1001
ACAD_MLEADERVER
1070
     2
  0
MLINESTYLE
  5
18
102
{ACAD_REACTORS
330
17
102
}
330
17
100
AcDbMlineStyle
  2
Standard
 70
     0
  3

 62
   256
 51
90.0
 52
90.0
 71
     2
 49
0.5
 62
   256
  6
BYLAYER
 49
-0.5
 62
   256
  6
BYLAYER
  0
ACDBPLACEHOLDER
  5
F
102
{ACAD_REACTORS
330
E
102
}
330
E
  0
SCALE
  5
331
102
{ACAD_REACTORS
330
330
102
}
330
330
100
AcDbScale
 70
     0
300
1:1
140
1.0
141
1.0
290
     1
  0
SCALE
  5
332
102
{ACAD_REACTORS
330
330
102
}
330
330
100
AcDbScale
 70
     0
300
1:2
140
1.0
141
2.0
290
     0
  0
SCALE
  5
333
102
{ACAD_REACTORS
330
330
102
}
330
330
100
AcDbScale
 70
     0
300
1:4
140
1.0
141
4.0
290
     0
  0
SCALE
  5
334
102
{ACAD_REACTORS
330
330
102
}
330
330
100
AcDbScale
 70
     0
300
1:5
140
1.0
141
5.0
290
     0
  0
SCALE
  5
335
102
{ACAD_REACTORS
330
330
102
}
330
330
100
AcDbScale
 70
     0
300
1:8
140
1.0
141
8.0
290
     0
  0
SCALE
  5
336
102
{ACAD_REACTORS
330
330
102
}
330
330
100
AcDbScale
 70
     0
300
1:10
140
1.0
141
10.0
290
     0
  0
SCALE
  5
337
102
{ACAD_REACTORS
330
330
102
}
330
330
100
AcDbScale
 70
     0
300
1:16
140
1.0
141
16.0
290
     0
  0
SCALE
  5
338
102
{ACAD_REACTORS
330
330
102
}
330
330
100
AcDbScale
 70
     0
300
1:20
140
1.0
141
20.0
290
     0
  0
SCALE
  5
339
102
{ACAD_REACTORS
330
330
102
}
330
330
100
AcDbScale
 70
     0
300
1:30
140
1.0
141
30.0
290
     0
  0
SCALE
  5
33A
102
{ACAD_REACTORS
330
330
102
}
330
330
100
AcDbScale
 70
     0
300
1:40
140
1.0
141
40.0
290
     0
  0
SCALE
  5
33B
102
{ACAD_REACTORS
330
330
102
}
330
330
100
AcDbScale
 70
     0
300
1:50
140
1.0
141
50.0
290
     0
  0
SCALE
  5
33C
102
{ACAD_REACTORS
330
330
102
}
330
330
100
AcDbScale
 70
     0
300
1:100
140
1.0
141
100.0
290
     0
  0
SCALE
  5
33D
102
{ACAD_REACTORS
330
330
102
}
330
330
100
AcDbScale
 70
     0
300
2:1
140
2.0
141
1.0
290
     0
  0
SCALE
  5
33E
102
{ACAD_REACTORS
330
330
102
}
330
330
100
AcDbScale
 70
     0
300
4:1
140
4.0
141
1.0
290
     0
  0
SCALE
  5
33F
102
{ACAD_REACTORS
330
330
102
}
330
330
100
AcDbScale
 70
     0
300
8:1
140
8.0
141
1.0
290
     0
  0
SCALE
  5
340
102
{ACAD_REACTORS
330
330
102
}
330
330
100
AcDbScale
 70
     0
300
10:1
140
10.0
141
1.0
290
     0
  0
SCALE
  5
341
102
{ACAD_REACTORS
330
330
102
}
330
330
100
AcDbScale
 70
     0
300
100:1
140
100.0
141
1.0
290
     0
  0
SCALE
  5
342
102
{ACAD_REACTORS
330
330
102
}
330
330
100
AcDbScale
 70
     0
300
1/128" = 1'-0"
140
0.0078125
141
12.0
290
     0
  0
SCALE
  5
343
102
{ACAD_REACTORS
330
330
102
}
330
330
100
AcDbScale
 70
     0
300
1/64" = 1'-0"
140
0.015625
141
12.0
290
     0
  0
SCALE
  5
344
102
{ACAD_REACTORS
330
330
102
}
330
330
100
AcDbScale
 70
     0
300
1/32" = 1'-0"
140
0.03125
141
12.0
290
     0
  0
SCALE
  5
345
102
{ACAD_REACTORS
330
330
102
}
330
330
100
AcDbScale
 70
     0
300
1/16" = 1'-0"
140
0.0625
141
12.0
290
     0
  0
SCALE
  5
346
102
{ACAD_REACTORS
330
330
102
}
330
330
100
AcDbScale
 70
     0
300
3/32" = 1'-0"
140
0.09375
141
12.0
290
     0
  0
SCALE
  5
347
102
{ACAD_REACTORS
330
330
102
}
330
330
100
AcDbScale
 70
     0
300
1/8" = 1'-0"
140
0.125
141
12.0
290
     0
  0
SCALE
  5
348
102
{ACAD_REACTORS
330
330
102
}
330
330
100
AcDbScale
 70
     0
300
3/16" = 1'-0"
140
0.1875
141
12.0
290
     0
  0
SCALE
  5
349
102
{ACAD_REACTORS
330
330
102
}
330
330
100
AcDbScale
 70
     0
300
1/4" = 1'-0"
140
0.25
141
12.0
290
     0
  0
SCALE
  5
34A
102
{ACAD_REACTORS
330
330
102
}
330
330
100
AcDbScale
 70
     0
300
3/8" = 1'-0"
140
0.375
141
12.0
290
     0
  0
SCALE
  5
34B
102
{ACAD_REACTORS
330
330
102
}
330
330
100
AcDbScale
 70
     0
300
1/2" = 1'-0"
140
0.5
141
12.0
290
     0
  0
SCALE
  5
34C
102
{ACAD_REACTORS
330
330
102
}
330
330
100
AcDbScale
 70
     0
300
3/4" = 1'-0"
140
0.75
141
12.0
290
     0
  0
SCALE
  5
34D
102
{ACAD_REACTORS
330
330
102
}
330
330
100
AcDbScale
 70
     0
300
1" = 1'-0"
140
1.0
141
12.0
290
     0
  0
SCALE
  5
34E
102
{ACAD_REACTORS
330
330
102
}
330
330
100
AcDbScale
 70
     0
300
1-1/2" = 1'-0"
140
1.5
141
12.0
290
     0
  0
SCALE
  5
34F
102
{ACAD_REACTORS
330
330
102
}
330
330
100
AcDbScale
 70
     0
300
3" = 1'-0"
140
3.0
141
12.0
290
     0
  0
SCALE
  5
350
102
{ACAD_REACTORS
330
330
102
}
330
330
100
AcDbScale
 70
     0
300
6" = 1'-0"
140
6.0
141
12.0
290
     0
  0
SCALE
  5
351
102
{ACAD_REACTORS
330
330
102
}
330
330
100
AcDbScale
 70
     0
300
1'-0" = 1'-0"
140
12.0
141
12.0
290
     0
  0
TABLESTYLE
  5
374
102
{ACAD_REACTORS
330
373
102
}
330
373
100
AcDbTableStyle
  3
Standard
 70
     0
 71
     0
 40
0.06
 41
0.06
280
     0
281
     0
  7
Standard
140
0.18
170
     2
 62
     0
 63
   257
283
     0
274
    -2
284
     1
 64
     0
275
    -2
285
     1
 65
     0
276
    -2
286
     1
 66
     0
277
    -2
287
     1
 67
     0
278
    -2
288
     1
 68
     0
279
    -2
289
     1
 69
     0
  7
Standard
140
0.25
170
     5
 62
     0
 63
   257
283
     0
274
    -2
284
     1
 64
     0
275
    -2
285
     1
 65
     0
276
    -2
286
     1
 66
     0
277
    -2
287
     1
 67
     0
278
    -2
288
     1
 68
     0
279
    -2
289
     1
 69
     0
  7
Standard
140
0.18
170
     5
 62
     0
 63
   257
283
     0
274
    -2
284
     1
 64
     0
275
    -2
285
     1
 65
     0
276
    -2
286
     1
 66
     0
277
    -2
287
     1
 67
     0
278
    -2
288
     1
 68
     0
279
    -2
289
     1
 69
     0
  0
VISUALSTYLE
  5
35B
102
{ACAD_REACTORS
330
356
102
}
102
{ACAD_XDICTIONARY
360
70A
102
}
330
356
100
AcDbVisualStyle
  2
2dWireframe
 70
     4
 71
     0
 72
     2
 73
     0
 90
        0
 40
0.6
 41
30.0
 62
     5
 63
     7
 74
     1
 91
        4
 64
     7
 65
   257
 75
     1
175
     1
 42
1.0
 92
        0
 66
   257
 43
1.0
 76
     1
 77
     6
 78
     2
 67
     7
 79
     5
170
     0
171
     0
290
     0
174
     0
 93
        1
 44
0.0
173
     0
291
     0
 45
0.0
1001
ACAD
1000
AcDbSavedByObjectVersion
1070
     0
  0
VISUALSTYLE
  5
35E
102
{ACAD_REACTORS
330
356
102
}
102
{ACAD_XDICTIONARY
360
710
102
}
330
356
100
AcDbVisualStyle
  2
Basic
 70
     7
 71
     1
 72
     0
 73
     1
 90
        0
 40
0.6
 41
30.0
 62
     5
 63
     7
 74
     0
 91
        4
 64
     7
 65
   257
 75
     1
175
     1
 42
1.0
 92
        8
 66
     7
 43
1.0
 76
     1
 77
     6
 78
     2
 67
     7
 79
     5
170
     0
171
     0
290
     0
174
     0
 93
        1
 44
0.0
173
     0
291
     1
 45
0.0
1001
ACAD
1000
AcDbSavedByObjectVersion
1070
     0
  0
VISUALSTYLE
  5
362
102
{ACAD_REACTORS
330
356
102
}
102
{ACAD_XDICTIONARY
360
718
102
}
330
356
100
AcDbVisualStyle
  2
Brighten
 70
    12
 71
     2
 72
     2
 73
     0
 90
        0
 40
0.6
 41
30.0
 62
     5
 63
     7
 74
     1
 91
        4
 64
     7
 65
   257
 75
     1
175
     1
 42
1.0
 92
        8
 66
     7
 43
1.0
 76
     1
 77
     6
 78
     2
 67
     7
 79
     5
170
     0
171
     0
290
     0
174
     0
 93
        1
 44
50.0
173
     0
291
     1
 45
0.0
1001
ACAD
1000
AcDbSavedByObjectVersion
1070
     0
  0
VISUALSTYLE
  5
366
102
{ACAD_REACTORS
330
356
102
}
102
{ACAD_XDICTIONARY
360
720
102
}
330
356
100
AcDbVisualStyle
  2
ColorChange
 70
    16
 71
     2
 72
     2
 73
     3
 90
        0
 40
0.6
 41
30.0
 62
     5
 63
     8
 74
     1
 91
        4
 64
     7
 65
   257
 75
     1
175
     1
 42
1.0
 92
        8
 66
     8
 43
1.0
 76
     1
 77
     6
 78
     2
 67
     7
 79
     5
170
     0
171
     0
290
     0
174
     0
 93
        1
 44
0.0
173
     0
291
     1
 45
0.0
1001
ACAD
1000
AcDbSavedByObjectVersion
1070
     0
  0
VISUALSTYLE
  5
360
102
{ACAD_REACTORS
330
356
102
}
102
{ACAD_XDICTIONARY
360
714
102
}
330
356
100
AcDbVisualStyle
  2
Conceptual
 70
     9
 71
     3
 72
     2
 73
     0
 90
        0
 40
0.6
 41
30.0
 62
     5
 63
     7
 74
     2
 91
        2
 64
     7
 65
   257
 75
     1
175
     1
 42
179.0
 92
        8
 66
     7
 43
1.0
 76
     1
 77
     6
 78
     2
 67
     7
 79
     3
170
     0
171
     0
290
     0
174
     0
 93
        1
 44
0.0
173
     0
291
     0
 45
0.0
1001
ACAD
1000
AcDbSavedByObjectVersion
1070
     0
  0
VISUALSTYLE
  5
361
102
{ACAD_REACTORS
330
356
102
}
102
{ACAD_XDICTIONARY
360
716
102
}
330
356
100
AcDbVisualStyle
  2
Dim
 70
    11
 71
     2
 72
     2
 73
     0
 90
        0
 40
0.6
 41
30.0
 62
     5
 63
     7
 74
     1
 91
        4
 64
     7
 65
   257
 75
     1
175
     1
 42
1.0
 92
        8
 66
     7
 43
1.0
 76
     1
 77
     6
 78
     2
 67
     7
 79
     5
170
     0
171
     0
290
     0
174
     0
 93
        1
 44
-50.0
173
     0
291
     1
 45
0.0
1001
ACAD
1000
AcDbSavedByObjectVersion
1070
     0
  0
VISUALSTYLE
  5
369
102
{ACAD_REACTORS
330
356
102
}
102
{ACAD_XDICTIONARY
360
726
102
}
330
356
100
AcDbVisualStyle
  2
EdgeColorOff
 70
    22
 71
     2
 72
     2
 73
     0
 90
        0
 40
0.6
 41
30.0
 62
     5
 63
     7
 74
     1
 91
        4
 64
     7
 65
   257
 75
     1
175
     1
 42
1.0
 92
        8
 66
     7
 43
1.0
 76
     1
 77
     6
 78
     2
 67
     7
 79
     5
170
     0
171
     0
290
     0
174
     0
 93
        1
 44
0.0
173
     0
291
     1
 45
0.0
1001
ACAD
1000
AcDbSavedByObjectVersion
1070
     0
  0
VISUALSTYLE
  5
365
102
{ACAD_REACTORS
330
356
102
}
102
{ACAD_XDICTIONARY
360
71E
102
}
330
356
100
AcDbVisualStyle
  2
Facepattern
 70
    15
 71
     2
 72
     2
 73
     0
 90
        0
 40
0.6
 41
30.0
 62
     5
 63
     7
 74
     1
 91
        4
 64
     7
 65
   257
 75
     1
175
     1
 42
1.0
 92
        8
 66
     7
 43
1.0
 76
     1
 77
     6
 78
     2
 67
     7
 79
     5
170
     0
171
     0
290
     0
174
     0
 93
        1
 44
0.0
173
     0
291
     1
 45
0.0
1001
ACAD
1000
AcDbSavedByObjectVersion
1070
     0
  0
VISUALSTYLE
  5
357
102
{ACAD_REACTORS
330
356
102
}
102
{ACAD_XDICTIONARY
360
702
102
}
330
356
100
AcDbVisualStyle
  2
Flat
 70
     0
 71
     2
 72
     1
 73
     1
 90
        2
 40
0.6
 41
30.0
 62
     5
 63
     7
 74
     0
 91
        0
 64
     7
 65
   257
 75
     1
175
     1
 42
1.0
 92
        8
 66
     7
 43
1.0
 76
     1
 77
     6
 78
     2
 67
     7
 79
     5
170
     0
171
     0
290
     0
174
     0
 93
       13
 44
0.0
173
     0
291
     1
 45
0.0
1001
ACAD
1000
AcDbSavedByObjectVersion
1070
     0
  0
VISUALSTYLE
  5
358
102
{ACAD_REACTORS
330
356
102
}
102
{ACAD_XDICTIONARY
360
704
102
}
330
356
100
AcDbVisualStyle
  2
FlatWithEdges
 70
     1
 71
     2
 72
     1
 73
     1
 90
        2
 40
0.6
 41
30.0
 62
     5
 63
     7
 74
     1
 91
        0
 64
     7
 65
   257
 75
     1
175
     1
 42
1.0
 92
        0
 66
   257
 43
1.0
 76
     1
 77
     6
 78
     2
 67
     7
 79
     5
170
     0
171
     0
290
     0
174
     0
 93
       13
 44
0.0
173
     0
291
     1
 45
0.0
1001
ACAD
1000
AcDbSavedByObjectVersion
1070
     0
  0
VISUALSTYLE
  5
359
102
{ACAD_REACTORS
330
356
102
}
102
{ACAD_XDICTIONARY
360
706
102
}
330
356
100
AcDbVisualStyle
  2
Gouraud
 70
     2
 71
     2
 72
     2
 73
     1
 90
        2
 40
0.6
 41
30.0
 62
     5
 63
     7
 74
     0
 91
        0
 64
     7
 65
   257
 75
     1
175
     1
 42
1.0
 92
        0
 66
     7
 43
1.0
 76
     1
 77
     6
 78
     2
 67
     7
 79
     5
170
     0
171
     0
290
     0
174
     0
 93
       13
 44
0.0
173
     0
291
     1
 45
0.0
1001
ACAD
1000
AcDbSavedByObjectVersion
1070
     0
  0
VISUALSTYLE
  5
35A
102
{ACAD_REACTORS
330
356
102
}
102
{ACAD_XDICTIONARY
360
708
102
}
330
356
100
AcDbVisualStyle
  2
GouraudWithEdges
 70
     3
 71
     2
 72
     2
 73
     1
 90
        2
 40
0.6
 41
30.0
 62
     5
 63
     7
 74
     1
 91
        0
 64
     7
 65
   257
 75
     1
175
     1
 42
1.0
 92
        0
 66
   257
 43
1.0
 76
     1
 77
     6
 78
     2
 67
     7
 79
     5
170
     0
171
     0
290
     0
174
     0
 93
       13
 44
0.0
173
     0
291
     1
 45
0.0
1001
ACAD
1000
AcDbSavedByObjectVersion
1070
     0
  0
VISUALSTYLE
  5
35D
102
{ACAD_REACTORS
330
356
102
}
102
{ACAD_XDICTIONARY
360
70E
102
}
330
356
100
AcDbVisualStyle
  2
Hidden
 70
     6
 71
     1
 72
     2
 73
     2
 90
        0
 40
0.6
 41
30.0
 62
     5
 63
     7
 74
     2
 91
        2
 64
     7
 65
   257
 75
     2
175
     1
 42
40.0
 92
        0
 66
   257
 43
1.0
 76
     1
 77
     6
 78
     2
 67
     7
 79
     3
170
     0
171
     0
290
     0
174
     0
 93
        1
 44
0.0
173
     0
291
     0
 45
0.0
1001
ACAD
1000
AcDbSavedByObjectVersion
1070
     0
  0
VISUALSTYLE
  5
367
102
{ACAD_REACTORS
330
356
102
}
102
{ACAD_XDICTIONARY
360
722
102
}
330
356
100
AcDbVisualStyle
  2
JitterOff
 70
    20
 71
     2
 72
     2
 73
     0
 90
        0
 40
0.6
 41
30.0
 62
     5
 63
     7
 74
     1
 91
        4
 64
     7
 65
   257
 75
     1
175
     1
 42
1.0
 92
       10
 66
     7
 43
1.0
 76
     1
 77
     6
 78
     2
 67
     7
 79
     5
170
     0
171
     0
290
     0
174
     0
 93
        1
 44
0.0
173
     0
291
     1
 45
0.0
1001
ACAD
1000
AcDbSavedByObjectVersion
1070
     0
  0
VISUALSTYLE
  5
364
102
{ACAD_REACTORS
330
356
102
}
102
{ACAD_XDICTIONARY
360
71C
102
}
330
356
100
AcDbVisualStyle
  2
Linepattern
 70
    14
 71
     2
 72
     2
 73
     0
 90
        0
 40
0.6
 41
30.0
 62
     5
 63
     7
 74
     1
 91
        4
 64
     7
 65
   257
 75
     7
175
     7
 42
1.0
 92
        8
 66
     7
 43
1.0
 76
     1
 77
     6
 78
     2
 67
     7
 79
     5
170
     0
171
     0
290
     0
174
     0
 93
        1
 44
0.0
173
     0
291
     1
 45
0.0
1001
ACAD
1000
AcDbSavedByObjectVersion
1070
     0
  0
VISUALSTYLE
  5
377
102
{ACAD_REACTORS
330
356
102
}
102
{ACAD_XDICTIONARY
360
732
102
}
330
356
100
AcDbVisualStyle
  2

 70
    10
 71
     2
 72
     3
 73
     0
 90
        2
 40
0.6
 41
30.0
 62
     5
 63
     7
 74
     2
 91
        0
 64
     7
 65
   257
 75
     1
175
     1
 42
180.0
 92
        8
 66
     8
 43
1.0
 76
     1
 77
     6
 78
     2
 67
     7
 79
     5
170
     0
171
     0
290
     0
174
     0
 93
       13
 44
0.0
173
     0
291
     0
 45
0.0
1001
ACAD
1000
AcDbSavedByObjectVersion
1070
     0
  0
VISUALSTYLE
  5
368
102
{ACAD_REACTORS
330
356
102
}
102
{ACAD_XDICTIONARY
360
724
102
}
330
356
100
AcDbVisualStyle
  2
OverhangOff
 70
    21
 71
     2
 72
     2
 73
     0
 90
        0
 40
0.6
 41
30.0
 62
     5
 63
     7
 74
     1
 91
        4
 64
     7
 65
   257
 75
     1
175
     1
 42
1.0
 92
        9
 66
     7
 43
1.0
 76
     1
 77
     6
 78
     2
 67
     7
 79
     5
170
     0
171
     0
290
     0
174
     0
 93
        1
 44
0.0
173
     0
291
     1
 45
0.0
1001
ACAD
1000
AcDbSavedByObjectVersion
1070
     0
  0
VISUALSTYLE
  5
35F
102
{ACAD_REACTORS
330
356
102
}
102
{ACAD_XDICTIONARY
360
712
102
}
330
356
100
AcDbVisualStyle
  2
Realistic
 70
     8
 71
     2
 72
     3
 73
     0
 90
        2
 40
0.6
 41
30.0
 62
     5
 63
     7
 74
     0
 91
        0
 64
     7
 65
   257
 75
     1
175
     1
 42
1.0
 92
        8
 66
   257
 43
1.0
 76
     1
 77
     6
 78
     2
 67
     7
 79
     3
170
     0
171
     0
290
     0
174
     0
 93
       13
 44
0.0
173
     0
291
     0
 45
0.0
1001
ACAD
1000
AcDbSavedByObjectVersion
1070
     0
  0
VISUALSTYLE
  5
36E
102
{ACAD_REACTORS
330
356
102
}
102
{ACAD_XDICTIONARY
360
730
102
}
330
356
100
AcDbVisualStyle
  2
Shaded
 70
    27
 71
     2
 72
     2
 73
     1
 90
        2
 40
0.6
 41
30.0
 62
     5
 63
     7
 74
     0
 91
        4
 64
     7
 65
   257
 75
     1
175
     1
 42
1.0
 92
        8
 66
   257
 43
1.0
 76
     1
 77
     6
 78
     2
 67
     8
 79
     3
170
     0
171
     0
290
     0
174
     0
 93
        5
 44
0.0
173
     0
291
     0
 45
0.0
1001
ACAD
1000
AcDbSavedByObjectVersion
1070
     0
  0
VISUALSTYLE
  5
36D
102
{ACAD_REACTORS
330
356
102
}
102
{ACAD_XDICTIONARY
360
72E
102
}
330
356
100
AcDbVisualStyle
  2
Shaded with edges
 70
    26
 71
     2
 72
     2
 73
     1
 90
        2
 40
0.6
 41
30.0
 62
     5
 63
     7
 74
     1
 91
       10
 64
     7
 65
   257
 75
     2
175
     1
 42
1.0
 92
        8
 66
   257
 43
1.0
 76
     1
 77
     6
 78
     2
 67
     7
 79
     3
170
     0
171
     0
290
     0
174
     0
 93
        5
 44
0.0
173
     0
291
     0
 45
0.0
1001
ACAD
1000
AcDbSavedByObjectVersion
1070
     0
  0
VISUALSTYLE
  5
36A
102
{ACAD_REACTORS
330
356
102
}
102
{ACAD_XDICTIONARY
360
728
102
}
330
356
100
AcDbVisualStyle
  2
Shades of Gray
 70
    23
 71
     2
 72
     2
 73
     3
 90
        0
 40
0.6
 41
30.0
 62
     5
 63
     7
 74
     2
 91
        2
 64
     7
 65
     7
 75
     1
175
     1
 42
40.0
 92
        8
 66
     7
 43
1.0
 76
     1
 77
     6
 78
     2
 67
     7
 79
     3
170
     0
171
     0
290
     0
174
     0
 93
        1
 44
0.0
173
     0
291
     0
 45
0.0
1001
ACAD
1000
AcDbSavedByObjectVersion
1070
     0
  0
VISUALSTYLE
  5
36B
102
{ACAD_REACTORS
330
356
102
}
102
{ACAD_XDICTIONARY
360
72A
102
}
330
356
100
AcDbVisualStyle
  2
Sketchy
 70
    24
 71
     1
 72
     2
 73
     2
 90
        0
 40
0.6
 41
30.0
 62
     5
 63
     7
 74
     2
 91
        2
 64
     7
 65
     7
 75
     1
175
     1
 42
40.0
 92
       11
 66
     7
 43
1.0
 76
     1
 77
     6
 78
     2
 67
     7
 79
     6
170
     0
171
     0
290
     0
174
     0
 93
        1
 44
0.0
173
     0
291
     0
 45
0.0
1001
ACAD
1000
AcDbSavedByObjectVersion
1070
     0
  0
VISUALSTYLE
  5
363
102
{ACAD_REACTORS
330
356
102
}
102
{ACAD_XDICTIONARY
360
71A
102
}
330
356
100
AcDbVisualStyle
  2
Thicken
 70
    13
 71
     2
 72
     2
 73
     0
 90
        0
 40
0.6
 41
30.0
 62
     5
 63
     7
 74
     1
 91
        4
 64
     7
 65
   257
 75
     1
175
     1
 42
1.0
 92
       12
 66
     7
 43
1.0
 76
     1
 77
     6
 78
     2
 67
     7
 79
     5
170
     0
171
     0
290
     0
174
     0
 93
        1
 44
0.0
173
     0
291
     1
 45
0.0
1001
ACAD
1000
AcDbSavedByObjectVersion
1070
     0
  0
VISUALSTYLE
  5
35C
102
{ACAD_REACTORS
330
356
102
}
102
{ACAD_XDICTIONARY
360
70C
102
}
330
356
100
AcDbVisualStyle
  2
Wireframe
 70
     5
 71
     0
 72
     2
 73
     0
 90
        0
 40
0.6
 41
30.0
 62
     5
 63
     7
 74
     1
 91
        4
 64
     7
 65
   257
 75
     1
175
     1
 42
1.0
 92
        0
 66
   257
 43
1.0
 76
     1
 77
     6
 78
     2
 67
     7
 79
     3
170
     0
171
     0
290
     0
174
     0
 93
        1
 44
0.0
173
     0
291
     0
 45
0.0
1001
ACAD
1000
AcDbSavedByObjectVersion
1070
     0
  0
VISUALSTYLE
  5
36C
102
{ACAD_REACTORS
330
356
102
}
102
{ACAD_XDICTIONARY
360
72C
102
}
330
356
100
AcDbVisualStyle
  2
X-Ray
 70
    25
 71
     2
 72
     2
 73
     1
 90
        1
 40
0.5
 41
30.0
 62
     5
 63
     7
 74
     1
 91
        0
 64
     7
 65
   257
 75
     1
175
     1
 42
1.0
 92
        8
 66
     7
 43
1.0
 76
     1
 77
     6
 78
     2
 67
     7
 79
     3
170
     0
171
     0
290
     0
174
     0
 93
       13
 44
0.0
173
     0
291
     0
 45
0.0
1001
ACAD
1000
AcDbSavedByObjectVersion
1070
     0
  0
DICTIONARYVAR
  5
6BF
102
{ACAD_REACTORS
330
50E
102
}
330
50E
100
DictionaryVariables
280
     0
  1
1:1
  0
DICTIONARYVAR
  5
510
102
{ACAD_REACTORS
330
50E
102
}
330
50E
100
DictionaryVariables
280
     0
  1
Standard
  0
DICTIONARYVAR
  5
50F
102
{ACAD_REACTORS
330
50E
102
}
330
50E
100
DictionaryVariables
280
     0
  1
Standard
  0
DICTIONARYVAR
  5
514
102
{ACAD_REACTORS
330
50E
102
}
330
50E
100
DictionaryVariables
280
     0
  1
2
  0
DICTIONARYVAR
  5
515
102
{ACAD_REACTORS
330
50E
102
}
330
50E
100
DictionaryVariables
280
     0
  1
1
  0
DICTIONARYVAR
  5
511
102
{ACAD_REACTORS
330
50E
102
}
330
50E
100
DictionaryVariables
280
     0
  1
0
  0
DICTIONARY
  5
56D
102
{ACAD_REACTORS
330
56C
102
}
330
56C
100
AcDbDictionary
281
     1
  0
DICTIONARY
  5
571
102
{ACAD_REACTORS
330
570
102
}
330
570
100
AcDbDictionary
281
     1
  0
DICTIONARY
  5
736
330
371
100
AcDbDictionary
280
     1
281
     1
  3
ACAD_XREC_ROUNDTRIP
360
737
  0
DICTIONARY
  5
734
330
370
100
AcDbDictionary
280
     1
281
     1
  3
ACAD_XREC_ROUNDTRIP
360
735
  0
DICTIONARY
  5
738
330
372
100
AcDbDictionary
280
     1
281
     1
  3
ACAD_XREC_ROUNDTRIP
360
739
  0
DICTIONARY
  5
73A
330
376
100
AcDbDictionary
280
     1
281
     1
  3
ACAD_XREC_ROUNDTRIP
360
73B
  0
DICTIONARY
  5
70A
330
35B
100
AcDbDictionary
280
     1
281
     1
  3
ACAD_XREC_ROUNDTRIP
360
70B
  0
DICTIONARY
  5
710
330
35E
100
AcDbDictionary
280
     1
281
     1
  3
ACAD_XREC_ROUNDTRIP
360
711
  0
DICTIONARY
  5
718
330
362
100
AcDbDictionary
280
     1
281
     1
  3
ACAD_XREC_ROUNDTRIP
360
719
  0
DICTIONARY
  5
720
330
366
100
AcDbDictionary
280
     1
281
     1
  3
ACAD_XREC_ROUNDTRIP
360
721
  0
DICTIONARY
  5
714
330
360
100
AcDbDictionary
280
     1
281
     1
  3
ACAD_XREC_ROUNDTRIP
360
715
  0
DICTIONARY
  5
716
330
361
100
AcDbDictionary
280
     1
281
     1
  3
ACAD_XREC_ROUNDTRIP
360
717
  0
DICTIONARY
  5
726
330
369
100
AcDbDictionary
280
     1
281
     1
  3
ACAD_XREC_ROUNDTRIP
360
727
  0
DICTIONARY
  5
71E
330
365
100
AcDbDictionary
280
     1
281
     1
  3
ACAD_XREC_ROUNDTRIP
360
71F
  0
DICTIONARY
  5
702
330
357
100
AcDbDictionary
280
     1
281
     1
  3
ACAD_XREC_ROUNDTRIP
360
703
  0
DICTIONARY
  5
704
330
358
100
AcDbDictionary
280
     1
281
     1
  3
ACAD_XREC_ROUNDTRIP
360
705
  0
DICTIONARY
  5
706
330
359
100
AcDbDictionary
280
     1
281
     1
  3
ACAD_XREC_ROUNDTRIP
360
707
  0
DICTIONARY
  5
708
330
35A
100
AcDbDictionary
280
     1
281
     1
  3
ACAD_XREC_ROUNDTRIP
360
709
  0
DICTIONARY
  5
70E
330
35D
100
AcDbDictionary
280
     1
281
     1
  3
ACAD_XREC_ROUNDTRIP
360
70F
  0
DICTIONARY
  5
722
330
367
100
AcDbDictionary
280
     1
281
     1
  3
ACAD_XREC_ROUNDTRIP
360
723
  0
DICTIONARY
  5
71C
330
364
100
AcDbDictionary
280
     1
281
     1
  3
ACAD_XREC_ROUNDTRIP
360
71D
  0
DICTIONARY
  5
732
330
377
100
AcDbDictionary
280
     1
281
     1
  3
ACAD_XREC_ROUNDTRIP
360
733
  0
DICTIONARY
  5
724
330
368
100
AcDbDictionary
280
     1
281
     1
  3
ACAD_XREC_ROUNDTRIP
360
725
  0
DICTIONARY
  5
712
330
35F
100
AcDbDictionary
280
     1
281
     1
  3
ACAD_XREC_ROUNDTRIP
360
713
  0
DICTIONARY
  5
730
330
36E
100
AcDbDictionary
280
     1
281
     1
  3
ACAD_XREC_ROUNDTRIP
360
731
  0
DICTIONARY
  5
72E
330
36D
100
AcDbDictionary
280
     1
281
     1
  3
ACAD_XREC_ROUNDTRIP
360
72F
  0
DICTIONARY
  5
728
330
36A
100
AcDbDictionary
280
     1
281
     1
  3
ACAD_XREC_ROUNDTRIP
360
729
  0
DICTIONARY
  5
72A
330
36B
100
AcDbDictionary
280
     1
281
     1
  3
ACAD_XREC_ROUNDTRIP
360
72B
  0
DICTIONARY
  5
71A
330
363
100
AcDbDictionary
280
     1
281
     1
  3
ACAD_XREC_ROUNDTRIP
360
71B
  0
DICTIONARY
  5
70C
330
35C
100
AcDbDictionary
280
     1
281
     1
  3
ACAD_XREC_ROUNDTRIP
360
70D
  0
DICTIONARY
  5
72C
330
36C
100
AcDbDictionary
280
     1
281
     1
  3
ACAD_XREC_ROUNDTRIP
360
72D
  0
XRECORD
  5
737
102
{ACAD_REACTORS
330
736
102
}
330
736
100
AcDbXrecord
280
     1
102
MATERIAL
148
0.0
149
0.0
149
0.0
 93
        0
 94
      127
282
     0
 72
     1
 77
     1
171
     1
175
     1
179
     1
273
     0
  0
XRECORD
  5
735
102
{ACAD_REACTORS
330
734
102
}
330
734
100
AcDbXrecord
280
     1
102
MATERIAL
148
0.0
149
0.0
149
0.0
 93
        0
 94
      127
282
     0
 72
     1
 77
     1
171
     1
175
     1
179
     1
273
     0
  0
XRECORD
  5
739
102
{ACAD_REACTORS
330
738
102
}
330
738
100
AcDbXrecord
280
     1
102
MATERIAL
148
0.0
149
0.0
149
0.0
 93
        0
 94
      127
282
     0
 72
     1
 77
     1
171
     1
175
     1
179
     1
273
     0
  0
XRECORD
  5
73B
102
{ACAD_REACTORS
330
73A
102
}
330
73A
100
AcDbXrecord
280
     1
102
ACAD_ROUNDTRIP_2010_MLEADER_STYLE
  0
XRECORD
  5
70B
102
{ACAD_REACTORS
330
70A
102
}
330
70A
100
AcDbXrecord
280
     1
102
RTVSPropertyOp0
 70
     1
102
RTVSPropertyOp1
 70
     1
102
RTVSPropertyOp2
 70
     1
102
RTVSPropertyOp3
 70
     1
102
RTVSPropertyOp4
 70
     1
102
RTVSPropertyOp5
 70
     1
102
RTVSPropertyOp6
 70
     1
102
RTVSPropertyOp7
 70
     1
102
RTVSPropertyOp8
 70
     1
102
RTVSPropertyOp9
 70
     1
102
RTVSPropertyOp10
 70
     1
102
RTVSPropertyOp11
 70
     1
102
RTVSPropertyOp12
 70
     1
102
RTVSPropertyOp13
 70
     1
102
RTVSPropertyOp14
 70
     1
102
RTVSPropertyOp15
 70
     1
102
RTVSPropertyOp16
 70
     1
102
RTVSPropertyOp17
 70
     1
102
RTVSPropertyOp18
 70
     1
102
RTVSPropertyOp19
 70
     1
102
RTVSPropertyOp20
 70
     1
102
RTVSPropertyOp21
 70
     1
102
RTVSPropertyOp22
 70
     1
102
RTVSPropertyOp23
 70
     1
102
RTVSPropertyOp24
 70
     1
102
RTVSPropertyOp25
 70
     1
102
RTVSPropertyOp26
 70
     1
102
RTVSPropertyOp27
 70
     1
102
RTVSPropertyOp28
 70
     1
102
RTVSPropertyOp29
 70
     1
102
RTVSPropertyOp30
 70
     1
102
RTVSPropertyOp31
 70
     1
102
RTVSPropertyOp32
 70
     1
102
RTVSPropertyOp33
 70
     1
102
RTVSPropertyOp34
 70
     1
102
RTVSPropertyOp35
 70
     1
102
RTVSPropertyOp36
 70
     1
102
RTVSPropertyOp37
 70
     1
102
RTVSPropertyOp38
 70
     1
102
RTVSPropertyOp39
 70
     1
102
RTVSPropertyOp40
 70
     1
102
RTVSPropertyOp41
 70
     1
102
RTVSPropertyOp42
 70
     1
102
RTVSPropertyOp43
 70
     1
102
RTVSPropertyOp44
 70
     1
102
RTVSPropertyOp45
 70
     1
102
RTVSPropertyOp46
 70
     1
102
RTVSPropertyOp47
 70
     1
102
RTVSPropertyOp48
 70
     1
102
RTVSPropertyOp49
 70
     1
102
RTVSPropertyOp50
 70
     1
102
RTVSPropertyOp51
 70
     0
102
RTVSPropertyOp52
 70
     0
102
RTVSPropertyOp53
 70
     1
102
RTVSPropertyOp54
 70
     1
102
RTVSPropertyOp55
 70
     1
102
RTVSPropertyOp56
 70
     1
102
RTVSPropertyOp57
 70
     1
102
RTVSPost2010Prop28
280
     1
102
RTVSPost2010PropOp28
 70
     1
102
RTVSPost2010Prop29
280
     1
102
RTVSPost2010PropOp29
 70
     1
102
RTVSPost2010Prop30
280
     0
102
RTVSPost2010PropOp30
 70
     1
102
RTVSPost2010Prop31
280
     0
102
RTVSPost2010PropOp31
 70
     1
102
RTVSPost2010Prop32
280
     0
102
RTVSPost2010PropOp32
 70
     1
102
RTVSPost2010Prop33
280
     0
102
RTVSPost2010PropOp33
 70
     1
102
RTVSPost2010Prop34
280
     0
102
RTVSPost2010PropOp34
 70
     1
102
RTVSPost2010Prop35
280
     0
102
RTVSPost2010PropOp35
 70
     1
102
RTVSPost2010Prop36
280
     0
102
RTVSPost2010PropOp36
 70
     1
102
RTVSPost2010Prop37
 90
       50
102
RTVSPost2010PropOp37
 70
     1
102
RTVSPost2010Prop38
140
0.0
102
RTVSPost2010PropOp38
 70
     1
102
RTVSPost2010Prop39
140
1.0
102
RTVSPost2010PropOp39
 70
     1
102
RTVSPost2010Prop40
 90
        0
102
RTVSPost2010PropOp40
 70
     1
102
RTVSPost2010Prop41ColorIndex
 90
       18
102
RTVSPost2010Prop41ColorRGB
 90
        0
102
RTVSPost2010PropOp41
 70
     1
102
RTVSPost2010Prop42
 90
       50
102
RTVSPost2010PropOp42
 70
     1
102
RTVSPost2010Prop43
 90
        3
102
RTVSPost2010PropOp43
 70
     1
102
RTVSPost2010Prop44ColorIndex
 90
        5
102
RTVSPost2010Prop44ColorRGB
 90
      255
102
RTVSPost2010PropOp44
 70
     1
102
RTVSPost2010Prop45
280
     0
102
RTVSPost2010PropOp45
 70
     1
102
RTVSPost2010Prop46
 90
       50
102
RTVSPost2010PropOp46
 70
     1
102
RTVSPost2010Prop47
 90
       50
102
RTVSPost2010PropOp47
 70
     1
102
RTVSPost2010Prop48
 90
       50
102
RTVSPost2010PropOp48
 70
     1
102
RTVSPost2010Prop49
280
     0
102
RTVSPost2010PropOp49
 70
     1
102
RTVSPost2010Prop50
 90
       50
102
RTVSPost2010PropOp50
 70
     1
102
RTVSPost2010Prop51ColorIndex
 90
      256
102
RTVSPost2010Prop51ColorRGB
 90
-16777216
102
RTVSPost2010PropOp51
 70
     0
102
RTVSPost2010Prop52
140
1.0
102
RTVSPost2010PropOp52
 70
     0
102
RTVSPost2010Prop53
 90
        2
102
RTVSPost2010PropOp53
 70
     1
102
RTVSPost2010Prop54
  1
strokes_ogs.tif
102
RTVSPost2010PropOp54
 70
     1
102
RTVSPost2010Prop55
280
     0
102
RTVSPost2010PropOp55
 70
     1
102
RTVSPost2010Prop56
140
1.0
102
RTVSPost2010PropOp56
 70
     1
102
RTVSPost2010Prop57
140
1.0
102
RTVSPost2010PropOp57
 70
     1
  0
XRECORD
  5
711
102
{ACAD_REACTORS
330
710
102
}
330
710
100
AcDbXrecord
280
     1
102
RTVSPropertyOp0
 70
     1
102
RTVSPropertyOp1
 70
     1
102
RTVSPropertyOp2
 70
     1
102
RTVSPropertyOp3
 70
     1
102
RTVSPropertyOp4
 70
     1
102
RTVSPropertyOp5
 70
     1
102
RTVSPropertyOp6
 70
     1
102
RTVSPropertyOp7
 70
     1
102
RTVSPropertyOp8
 70
     1
102
RTVSPropertyOp9
 70
     1
102
RTVSPropertyOp10
 70
     1
102
RTVSPropertyOp11
 70
     1
102
RTVSPropertyOp12
 70
     1
102
RTVSPropertyOp13
 70
     1
102
RTVSPropertyOp14
 70
     1
102
RTVSPropertyOp15
 70
     1
102
RTVSPropertyOp16
 70
     1
102
RTVSPropertyOp17
 70
     1
102
RTVSPropertyOp18
 70
     1
102
RTVSPropertyOp19
 70
     1
102
RTVSPropertyOp20
 70
     1
102
RTVSPropertyOp21
 70
     1
102
RTVSPropertyOp22
 70
     1
102
RTVSPropertyOp23
 70
     1
102
RTVSPropertyOp24
 70
     1
102
RTVSPropertyOp25
 70
     1
102
RTVSPropertyOp26
 70
     1
102
RTVSPropertyOp27
 70
     1
102
RTVSPropertyOp28
 70
     1
102
RTVSPropertyOp29
 70
     1
102
RTVSPropertyOp30
 70
     1
102
RTVSPropertyOp31
 70
     1
102
RTVSPropertyOp32
 70
     1
102
RTVSPropertyOp33
 70
     1
102
RTVSPropertyOp34
 70
     1
102
RTVSPropertyOp35
 70
     1
102
RTVSPropertyOp36
 70
     1
102
RTVSPropertyOp37
 70
     1
102
RTVSPropertyOp38
 70
     1
102
RTVSPropertyOp39
 70
     1
102
RTVSPropertyOp40
 70
     1
102
RTVSPropertyOp41
 70
     1
102
RTVSPropertyOp42
 70
     1
102
RTVSPropertyOp43
 70
     1
102
RTVSPropertyOp44
 70
     1
102
RTVSPropertyOp45
 70
     1
102
RTVSPropertyOp46
 70
     1
102
RTVSPropertyOp47
 70
     1
102
RTVSPropertyOp48
 70
     1
102
RTVSPropertyOp49
 70
     1
102
RTVSPropertyOp50
 70
     1
102
RTVSPropertyOp51
 70
     0
102
RTVSPropertyOp52
 70
     0
102
RTVSPropertyOp53
 70
     1
102
RTVSPropertyOp54
 70
     1
102
RTVSPropertyOp55
 70
     1
102
RTVSPropertyOp56
 70
     1
102
RTVSPropertyOp57
 70
     1
102
RTVSPost2010Prop28
280
     0
102
RTVSPost2010PropOp28
 70
     1
102
RTVSPost2010Prop29
280
     1
102
RTVSPost2010PropOp29
 70
     1
102
RTVSPost2010Prop30
280
     1
102
RTVSPost2010PropOp30
 70
     1
102
RTVSPost2010Prop31
280
     0
102
RTVSPost2010PropOp31
 70
     1
102
RTVSPost2010Prop32
280
     0
102
RTVSPost2010PropOp32
 70
     1
102
RTVSPost2010Prop33
280
     0
102
RTVSPost2010PropOp33
 70
     1
102
RTVSPost2010Prop34
280
     0
102
RTVSPost2010PropOp34
 70
     1
102
RTVSPost2010Prop35
280
     0
102
RTVSPost2010PropOp35
 70
     1
102
RTVSPost2010Prop36
280
     0
102
RTVSPost2010PropOp36
 70
     1
102
RTVSPost2010Prop37
 90
       50
102
RTVSPost2010PropOp37
 70
     1
102
RTVSPost2010Prop38
140
0.0
102
RTVSPost2010PropOp38
 70
     1
102
RTVSPost2010Prop39
140
1.0
102
RTVSPost2010PropOp39
 70
     1
102
RTVSPost2010Prop40
 90
        0
102
RTVSPost2010PropOp40
 70
     1
102
RTVSPost2010Prop41ColorIndex
 90
       18
102
RTVSPost2010Prop41ColorRGB
 90
        0
102
RTVSPost2010PropOp41
 70
     1
102
RTVSPost2010Prop42
 90
       50
102
RTVSPost2010PropOp42
 70
     1
102
RTVSPost2010Prop43
 90
        3
102
RTVSPost2010PropOp43
 70
     1
102
RTVSPost2010Prop44ColorIndex
 90
        5
102
RTVSPost2010Prop44ColorRGB
 90
      255
102
RTVSPost2010PropOp44
 70
     1
102
RTVSPost2010Prop45
280
     0
102
RTVSPost2010PropOp45
 70
     1
102
RTVSPost2010Prop46
 90
       50
102
RTVSPost2010PropOp46
 70
     1
102
RTVSPost2010Prop47
 90
       50
102
RTVSPost2010PropOp47
 70
     1
102
RTVSPost2010Prop48
 90
       50
102
RTVSPost2010PropOp48
 70
     1
102
RTVSPost2010Prop49
280
     0
102
RTVSPost2010PropOp49
 70
     1
102
RTVSPost2010Prop50
 90
       50
102
RTVSPost2010PropOp50
 70
     1
102
RTVSPost2010Prop51ColorIndex
 90
      256
102
RTVSPost2010Prop51ColorRGB
 90
-16777216
102
RTVSPost2010PropOp51
 70
     0
102
RTVSPost2010Prop52
140
1.0
102
RTVSPost2010PropOp52
 70
     0
102
RTVSPost2010Prop53
 90
        2
102
RTVSPost2010PropOp53
 70
     1
102
RTVSPost2010Prop54
  1
strokes_ogs.tif
102
RTVSPost2010PropOp54
 70
     1
102
RTVSPost2010Prop55
280
     0
102
RTVSPost2010PropOp55
 70
     1
102
RTVSPost2010Prop56
140
1.0
102
RTVSPost2010PropOp56
 70
     1
102
RTVSPost2010Prop57
140
1.0
102
RTVSPost2010PropOp57
 70
     1
  0
XRECORD
  5
719
102
{ACAD_REACTORS
330
718
102
}
330
718
100
AcDbXrecord
280
     1
102
RTVSPropertyOp0
 70
     1
102
RTVSPropertyOp1
 70
     1
102
RTVSPropertyOp2
 70
     1
102
RTVSPropertyOp3
 70
     1
102
RTVSPropertyOp4
 70
     1
102
RTVSPropertyOp5
 70
     1
102
RTVSPropertyOp6
 70
     1
102
RTVSPropertyOp7
 70
     1
102
RTVSPropertyOp8
 70
     1
102
RTVSPropertyOp9
 70
     1
102
RTVSPropertyOp10
 70
     1
102
RTVSPropertyOp11
 70
     1
102
RTVSPropertyOp12
 70
     1
102
RTVSPropertyOp13
 70
     1
102
RTVSPropertyOp14
 70
     1
102
RTVSPropertyOp15
 70
     1
102
RTVSPropertyOp16
 70
     1
102
RTVSPropertyOp17
 70
     1
102
RTVSPropertyOp18
 70
     1
102
RTVSPropertyOp19
 70
     1
102
RTVSPropertyOp20
 70
     1
102
RTVSPropertyOp21
 70
     1
102
RTVSPropertyOp22
 70
     1
102
RTVSPropertyOp23
 70
     1
102
RTVSPropertyOp24
 70
     1
102
RTVSPropertyOp25
 70
     1
102
RTVSPropertyOp26
 70
     1
102
RTVSPropertyOp27
 70
     1
102
RTVSPropertyOp28
 70
     1
102
RTVSPropertyOp29
 70
     1
102
RTVSPropertyOp30
 70
     1
102
RTVSPropertyOp31
 70
     1
102
RTVSPropertyOp32
 70
     1
102
RTVSPropertyOp33
 70
     1
102
RTVSPropertyOp34
 70
     1
102
RTVSPropertyOp35
 70
     1
102
RTVSPropertyOp36
 70
     1
102
RTVSPropertyOp37
 70
     1
102
RTVSPropertyOp38
 70
     1
102
RTVSPropertyOp39
 70
     1
102
RTVSPropertyOp40
 70
     1
102
RTVSPropertyOp41
 70
     1
102
RTVSPropertyOp42
 70
     1
102
RTVSPropertyOp43
 70
     1
102
RTVSPropertyOp44
 70
     1
102
RTVSPropertyOp45
 70
     1
102
RTVSPropertyOp46
 70
     1
102
RTVSPropertyOp47
 70
     1
102
RTVSPropertyOp48
 70
     1
102
RTVSPropertyOp49
 70
     1
102
RTVSPropertyOp50
 70
     1
102
RTVSPropertyOp51
 70
     0
102
RTVSPropertyOp52
 70
     0
102
RTVSPropertyOp53
 70
     1
102
RTVSPropertyOp54
 70
     1
102
RTVSPropertyOp55
 70
     1
102
RTVSPropertyOp56
 70
     1
102
RTVSPropertyOp57
 70
     1
102
RTVSPost2010Prop28
280
     0
102
RTVSPost2010PropOp28
 70
     1
102
RTVSPost2010Prop29
280
     1
102
RTVSPost2010PropOp29
 70
     1
102
RTVSPost2010Prop30
280
     1
102
RTVSPost2010PropOp30
 70
     1
102
RTVSPost2010Prop31
280
     0
102
RTVSPost2010PropOp31
 70
     1
102
RTVSPost2010Prop32
280
     0
102
RTVSPost2010PropOp32
 70
     1
102
RTVSPost2010Prop33
280
     0
102
RTVSPost2010PropOp33
 70
     1
102
RTVSPost2010Prop34
280
     0
102
RTVSPost2010PropOp34
 70
     1
102
RTVSPost2010Prop35
280
     0
102
RTVSPost2010PropOp35
 70
     1
102
RTVSPost2010Prop36
280
     0
102
RTVSPost2010PropOp36
 70
     1
102
RTVSPost2010Prop37
 90
       50
102
RTVSPost2010PropOp37
 70
     1
102
RTVSPost2010Prop38
140
0.0
102
RTVSPost2010PropOp38
 70
     1
102
RTVSPost2010Prop39
140
1.0
102
RTVSPost2010PropOp39
 70
     1
102
RTVSPost2010Prop40
 90
        0
102
RTVSPost2010PropOp40
 70
     1
102
RTVSPost2010Prop41ColorIndex
 90
       18
102
RTVSPost2010Prop41ColorRGB
 90
        0
102
RTVSPost2010PropOp41
 70
     1
102
RTVSPost2010Prop42
 90
       50
102
RTVSPost2010PropOp42
 70
     1
102
RTVSPost2010Prop43
 90
        3
102
RTVSPost2010PropOp43
 70
     1
102
RTVSPost2010Prop44ColorIndex
 90
        5
102
RTVSPost2010Prop44ColorRGB
 90
      255
102
RTVSPost2010PropOp44
 70
     1
102
RTVSPost2010Prop45
280
     0
102
RTVSPost2010PropOp45
 70
     1
102
RTVSPost2010Prop46
 90
       50
102
RTVSPost2010PropOp46
 70
     1
102
RTVSPost2010Prop47
 90
       50
102
RTVSPost2010PropOp47
 70
     1
102
RTVSPost2010Prop48
 90
       50
102
RTVSPost2010PropOp48
 70
     1
102
RTVSPost2010Prop49
280
     0
102
RTVSPost2010PropOp49
 70
     1
102
RTVSPost2010Prop50
 90
       50
102
RTVSPost2010PropOp50
 70
     1
102
RTVSPost2010Prop51ColorIndex
 90
      256
102
RTVSPost2010Prop51ColorRGB
 90
-16777216
102
RTVSPost2010PropOp51
 70
     0
102
RTVSPost2010Prop52
140
1.0
102
RTVSPost2010PropOp52
 70
     0
102
RTVSPost2010Prop53
 90
        2
102
RTVSPost2010PropOp53
 70
     1
102
RTVSPost2010Prop54
  1
strokes_ogs.tif
102
RTVSPost2010PropOp54
 70
     1
102
RTVSPost2010Prop55
280
     0
102
RTVSPost2010PropOp55
 70
     1
102
RTVSPost2010Prop56
140
1.0
102
RTVSPost2010PropOp56
 70
     1
102
RTVSPost2010Prop57
140
1.0
102
RTVSPost2010PropOp57
 70
     1
  0
XRECORD
  5
721
102
{ACAD_REACTORS
330
720
102
}
330
720
100
AcDbXrecord
280
     1
102
RTVSPropertyOp0
 70
     1
102
RTVSPropertyOp1
 70
     1
102
RTVSPropertyOp2
 70
     1
102
RTVSPropertyOp3
 70
     1
102
RTVSPropertyOp4
 70
     1
102
RTVSPropertyOp5
 70
     1
102
RTVSPropertyOp6
 70
     1
102
RTVSPropertyOp7
 70
     1
102
RTVSPropertyOp8
 70
     1
102
RTVSPropertyOp9
 70
     1
102
RTVSPropertyOp10
 70
     1
102
RTVSPropertyOp11
 70
     1
102
RTVSPropertyOp12
 70
     1
102
RTVSPropertyOp13
 70
     1
102
RTVSPropertyOp14
 70
     1
102
RTVSPropertyOp15
 70
     1
102
RTVSPropertyOp16
 70
     1
102
RTVSPropertyOp17
 70
     1
102
RTVSPropertyOp18
 70
     1
102
RTVSPropertyOp19
 70
     1
102
RTVSPropertyOp20
 70
     1
102
RTVSPropertyOp21
 70
     1
102
RTVSPropertyOp22
 70
     1
102
RTVSPropertyOp23
 70
     1
102
RTVSPropertyOp24
 70
     1
102
RTVSPropertyOp25
 70
     1
102
RTVSPropertyOp26
 70
     1
102
RTVSPropertyOp27
 70
     1
102
RTVSPropertyOp28
 70
     1
102
RTVSPropertyOp29
 70
     1
102
RTVSPropertyOp30
 70
     1
102
RTVSPropertyOp31
 70
     1
102
RTVSPropertyOp32
 70
     1
102
RTVSPropertyOp33
 70
     1
102
RTVSPropertyOp34
 70
     1
102
RTVSPropertyOp35
 70
     1
102
RTVSPropertyOp36
 70
     1
102
RTVSPropertyOp37
 70
     1
102
RTVSPropertyOp38
 70
     1
102
RTVSPropertyOp39
 70
     1
102
RTVSPropertyOp40
 70
     1
102
RTVSPropertyOp41
 70
     1
102
RTVSPropertyOp42
 70
     1
102
RTVSPropertyOp43
 70
     1
102
RTVSPropertyOp44
 70
     1
102
RTVSPropertyOp45
 70
     1
102
RTVSPropertyOp46
 70
     1
102
RTVSPropertyOp47
 70
     1
102
RTVSPropertyOp48
 70
     1
102
RTVSPropertyOp49
 70
     1
102
RTVSPropertyOp50
 70
     1
102
RTVSPropertyOp51
 70
     0
102
RTVSPropertyOp52
 70
     0
102
RTVSPropertyOp53
 70
     1
102
RTVSPropertyOp54
 70
     1
102
RTVSPropertyOp55
 70
     1
102
RTVSPropertyOp56
 70
     1
102
RTVSPropertyOp57
 70
     1
102
RTVSPost2010Prop28
280
     0
102
RTVSPost2010PropOp28
 70
     1
102
RTVSPost2010Prop29
280
     1
102
RTVSPost2010PropOp29
 70
     1
102
RTVSPost2010Prop30
280
     1
102
RTVSPost2010PropOp30
 70
     1
102
RTVSPost2010Prop31
280
     0
102
RTVSPost2010PropOp31
 70
     1
102
RTVSPost2010Prop32
280
     0
102
RTVSPost2010PropOp32
 70
     1
102
RTVSPost2010Prop33
280
     0
102
RTVSPost2010PropOp33
 70
     1
102
RTVSPost2010Prop34
280
     0
102
RTVSPost2010PropOp34
 70
     1
102
RTVSPost2010Prop35
280
     0
102
RTVSPost2010PropOp35
 70
     1
102
RTVSPost2010Prop36
280
     0
102
RTVSPost2010PropOp36
 70
     1
102
RTVSPost2010Prop37
 90
       50
102
RTVSPost2010PropOp37
 70
     1
102
RTVSPost2010Prop38
140
0.0
102
RTVSPost2010PropOp38
 70
     1
102
RTVSPost2010Prop39
140
1.0
102
RTVSPost2010PropOp39
 70
     1
102
RTVSPost2010Prop40
 90
        0
102
RTVSPost2010PropOp40
 70
     1
102
RTVSPost2010Prop41ColorIndex
 90
       18
102
RTVSPost2010Prop41ColorRGB
 90
        0
102
RTVSPost2010PropOp41
 70
     1
102
RTVSPost2010Prop42
 90
       50
102
RTVSPost2010PropOp42
 70
     1
102
RTVSPost2010Prop43
 90
        3
102
RTVSPost2010PropOp43
 70
     1
102
RTVSPost2010Prop44ColorIndex
 90
        5
102
RTVSPost2010Prop44ColorRGB
 90
      255
102
RTVSPost2010PropOp44
 70
     1
102
RTVSPost2010Prop45
280
     0
102
RTVSPost2010PropOp45
 70
     1
102
RTVSPost2010Prop46
 90
       50
102
RTVSPost2010PropOp46
 70
     1
102
RTVSPost2010Prop47
 90
       50
102
RTVSPost2010PropOp47
 70
     1
102
RTVSPost2010Prop48
 90
       50
102
RTVSPost2010PropOp48
 70
     1
102
RTVSPost2010Prop49
280
     0
102
RTVSPost2010PropOp49
 70
     1
102
RTVSPost2010Prop50
 90
       50
102
RTVSPost2010PropOp50
 70
     1
102
RTVSPost2010Prop51ColorIndex
 90
      256
102
RTVSPost2010Prop51ColorRGB
 90
-16777216
102
RTVSPost2010PropOp51
 70
     0
102
RTVSPost2010Prop52
140
1.0
102
RTVSPost2010PropOp52
 70
     0
102
RTVSPost2010Prop53
 90
        2
102
RTVSPost2010PropOp53
 70
     1
102
RTVSPost2010Prop54
  1
strokes_ogs.tif
102
RTVSPost2010PropOp54
 70
     1
102
RTVSPost2010Prop55
280
     0
102
RTVSPost2010PropOp55
 70
     1
102
RTVSPost2010Prop56
140
1.0
102
RTVSPost2010PropOp56
 70
     1
102
RTVSPost2010Prop57
140
1.0
102
RTVSPost2010PropOp57
 70
     1
  0
XRECORD
  5
715
102
{ACAD_REACTORS
330
714
102
}
330
714
100
AcDbXrecord
280
     1
102
RTVSPropertyOp0
 70
     1
102
RTVSPropertyOp1
 70
     1
102
RTVSPropertyOp2
 70
     1
102
RTVSPropertyOp3
 70
     1
102
RTVSPropertyOp4
 70
     1
102
RTVSPropertyOp5
 70
     1
102
RTVSPropertyOp6
 70
     1
102
RTVSPropertyOp7
 70
     1
102
RTVSPropertyOp8
 70
     1
102
RTVSPropertyOp9
 70
     1
102
RTVSPropertyOp10
 70
     1
102
RTVSPropertyOp11
 70
     1
102
RTVSPropertyOp12
 70
     1
102
RTVSPropertyOp13
 70
     1
102
RTVSPropertyOp14
 70
     1
102
RTVSPropertyOp15
 70
     1
102
RTVSPropertyOp16
 70
     1
102
RTVSPropertyOp17
 70
     1
102
RTVSPropertyOp18
 70
     1
102
RTVSPropertyOp19
 70
     1
102
RTVSPropertyOp20
 70
     1
102
RTVSPropertyOp21
 70
     1
102
RTVSPropertyOp22
 70
     1
102
RTVSPropertyOp23
 70
     1
102
RTVSPropertyOp24
 70
     1
102
RTVSPropertyOp25
 70
     1
102
RTVSPropertyOp26
 70
     1
102
RTVSPropertyOp27
 70
     1
102
RTVSPropertyOp28
 70
     1
102
RTVSPropertyOp29
 70
     1
102
RTVSPropertyOp30
 70
     1
102
RTVSPropertyOp31
 70
     1
102
RTVSPropertyOp32
 70
     1
102
RTVSPropertyOp33
 70
     1
102
RTVSPropertyOp34
 70
     1
102
RTVSPropertyOp35
 70
     1
102
RTVSPropertyOp36
 70
     1
102
RTVSPropertyOp37
 70
     1
102
RTVSPropertyOp38
 70
     1
102
RTVSPropertyOp39
 70
     1
102
RTVSPropertyOp40
 70
     1
102
RTVSPropertyOp41
 70
     1
102
RTVSPropertyOp42
 70
     1
102
RTVSPropertyOp43
 70
     1
102
RTVSPropertyOp44
 70
     1
102
RTVSPropertyOp45
 70
     1
102
RTVSPropertyOp46
 70
     1
102
RTVSPropertyOp47
 70
     1
102
RTVSPropertyOp48
 70
     1
102
RTVSPropertyOp49
 70
     1
102
RTVSPropertyOp50
 70
     1
102
RTVSPropertyOp51
 70
     0
102
RTVSPropertyOp52
 70
     0
102
RTVSPropertyOp53
 70
     1
102
RTVSPropertyOp54
 70
     1
102
RTVSPropertyOp55
 70
     1
102
RTVSPropertyOp56
 70
     1
102
RTVSPropertyOp57
 70
     1
102
RTVSPost2010Prop28
280
     0
102
RTVSPost2010PropOp28
 70
     1
102
RTVSPost2010Prop29
280
     1
102
RTVSPost2010PropOp29
 70
     1
102
RTVSPost2010Prop30
280
     1
102
RTVSPost2010PropOp30
 70
     1
102
RTVSPost2010Prop31
280
     0
102
RTVSPost2010PropOp31
 70
     1
102
RTVSPost2010Prop32
280
     0
102
RTVSPost2010PropOp32
 70
     1
102
RTVSPost2010Prop33
280
     0
102
RTVSPost2010PropOp33
 70
     1
102
RTVSPost2010Prop34
280
     0
102
RTVSPost2010PropOp34
 70
     1
102
RTVSPost2010Prop35
280
     0
102
RTVSPost2010PropOp35
 70
     1
102
RTVSPost2010Prop36
280
     0
102
RTVSPost2010PropOp36
 70
     1
102
RTVSPost2010Prop37
 90
       50
102
RTVSPost2010PropOp37
 70
     1
102
RTVSPost2010Prop38
140
0.0
102
RTVSPost2010PropOp38
 70
     1
102
RTVSPost2010Prop39
140
1.0
102
RTVSPost2010PropOp39
 70
     1
102
RTVSPost2010Prop40
 90
        0
102
RTVSPost2010PropOp40
 70
     1
102
RTVSPost2010Prop41ColorIndex
 90
       18
102
RTVSPost2010Prop41ColorRGB
 90
        0
102
RTVSPost2010PropOp41
 70
     1
102
RTVSPost2010Prop42
 90
       50
102
RTVSPost2010PropOp42
 70
     1
102
RTVSPost2010Prop43
 90
        3
102
RTVSPost2010PropOp43
 70
     1
102
RTVSPost2010Prop44ColorIndex
 90
        5
102
RTVSPost2010Prop44ColorRGB
 90
      255
102
RTVSPost2010PropOp44
 70
     1
102
RTVSPost2010Prop45
280
     0
102
RTVSPost2010PropOp45
 70
     1
102
RTVSPost2010Prop46
 90
       50
102
RTVSPost2010PropOp46
 70
     1
102
RTVSPost2010Prop47
 90
       50
102
RTVSPost2010PropOp47
 70
     1
102
RTVSPost2010Prop48
 90
       50
102
RTVSPost2010PropOp48
 70
     1
102
RTVSPost2010Prop49
280
     0
102
RTVSPost2010PropOp49
 70
     1
102
RTVSPost2010Prop50
 90
       50
102
RTVSPost2010PropOp50
 70
     1
102
RTVSPost2010Prop51ColorIndex
 90
      256
102
RTVSPost2010Prop51ColorRGB
 90
-16777216
102
RTVSPost2010PropOp51
 70
     0
102
RTVSPost2010Prop52
140
1.0
102
RTVSPost2010PropOp52
 70
     0
102
RTVSPost2010Prop53
 90
        2
102
RTVSPost2010PropOp53
 70
     1
102
RTVSPost2010Prop54
  1
strokes_ogs.tif
102
RTVSPost2010PropOp54
 70
     1
102
RTVSPost2010Prop55
280
     0
102
RTVSPost2010PropOp55
 70
     1
102
RTVSPost2010Prop56
140
1.0
102
RTVSPost2010PropOp56
 70
     1
102
RTVSPost2010Prop57
140
1.0
102
RTVSPost2010PropOp57
 70
     1
  0
XRECORD
  5
717
102
{ACAD_REACTORS
330
716
102
}
330
716
100
AcDbXrecord
280
     1
102
RTVSPropertyOp0
 70
     1
102
RTVSPropertyOp1
 70
     1
102
RTVSPropertyOp2
 70
     1
102
RTVSPropertyOp3
 70
     1
102
RTVSPropertyOp4
 70
     1
102
RTVSPropertyOp5
 70
     1
102
RTVSPropertyOp6
 70
     1
102
RTVSPropertyOp7
 70
     1
102
RTVSPropertyOp8
 70
     1
102
RTVSPropertyOp9
 70
     1
102
RTVSPropertyOp10
 70
     1
102
RTVSPropertyOp11
 70
     1
102
RTVSPropertyOp12
 70
     1
102
RTVSPropertyOp13
 70
     1
102
RTVSPropertyOp14
 70
     1
102
RTVSPropertyOp15
 70
     1
102
RTVSPropertyOp16
 70
     1
102
RTVSPropertyOp17
 70
     1
102
RTVSPropertyOp18
 70
     1
102
RTVSPropertyOp19
 70
     1
102
RTVSPropertyOp20
 70
     1
102
RTVSPropertyOp21
 70
     1
102
RTVSPropertyOp22
 70
     1
102
RTVSPropertyOp23
 70
     1
102
RTVSPropertyOp24
 70
     1
102
RTVSPropertyOp25
 70
     1
102
RTVSPropertyOp26
 70
     1
102
RTVSPropertyOp27
 70
     1
102
RTVSPropertyOp28
 70
     1
102
RTVSPropertyOp29
 70
     1
102
RTVSPropertyOp30
 70
     1
102
RTVSPropertyOp31
 70
     1
102
RTVSPropertyOp32
 70
     1
102
RTVSPropertyOp33
 70
     1
102
RTVSPropertyOp34
 70
     1
102
RTVSPropertyOp35
 70
     1
102
RTVSPropertyOp36
 70
     1
102
RTVSPropertyOp37
 70
     1
102
RTVSPropertyOp38
 70
     1
102
RTVSPropertyOp39
 70
     1
102
RTVSPropertyOp40
 70
     1
102
RTVSPropertyOp41
 70
     1
102
RTVSPropertyOp42
 70
     1
102
RTVSPropertyOp43
 70
     1
102
RTVSPropertyOp44
 70
     1
102
RTVSPropertyOp45
 70
     1
102
RTVSPropertyOp46
 70
     1
102
RTVSPropertyOp47
 70
     1
102
RTVSPropertyOp48
 70
     1
102
RTVSPropertyOp49
 70
     1
102
RTVSPropertyOp50
 70
     1
102
RTVSPropertyOp51
 70
     0
102
RTVSPropertyOp52
 70
     0
102
RTVSPropertyOp53
 70
     1
102
RTVSPropertyOp54
 70
     1
102
RTVSPropertyOp55
 70
     1
102
RTVSPropertyOp56
 70
     1
102
RTVSPropertyOp57
 70
     1
102
RTVSPost2010Prop28
280
     0
102
RTVSPost2010PropOp28
 70
     1
102
RTVSPost2010Prop29
280
     1
102
RTVSPost2010PropOp29
 70
     1
102
RTVSPost2010Prop30
280
     1
102
RTVSPost2010PropOp30
 70
     1
102
RTVSPost2010Prop31
280
     0
102
RTVSPost2010PropOp31
 70
     1
102
RTVSPost2010Prop32
280
     0
102
RTVSPost2010PropOp32
 70
     1
102
RTVSPost2010Prop33
280
     0
102
RTVSPost2010PropOp33
 70
     1
102
RTVSPost2010Prop34
280
     0
102
RTVSPost2010PropOp34
 70
     1
102
RTVSPost2010Prop35
280
     0
102
RTVSPost2010PropOp35
 70
     1
102
RTVSPost2010Prop36
280
     0
102
RTVSPost2010PropOp36
 70
     1
102
RTVSPost2010Prop37
 90
       50
102
RTVSPost2010PropOp37
 70
     1
102
RTVSPost2010Prop38
140
0.0
102
RTVSPost2010PropOp38
 70
     1
102
RTVSPost2010Prop39
140
1.0
102
RTVSPost2010PropOp39
 70
     1
102
RTVSPost2010Prop40
 90
        0
102
RTVSPost2010PropOp40
 70
     1
102
RTVSPost2010Prop41ColorIndex
 90
       18
102
RTVSPost2010Prop41ColorRGB
 90
        0
102
RTVSPost2010PropOp41
 70
     1
102
RTVSPost2010Prop42
 90
       50
102
RTVSPost2010PropOp42
 70
     1
102
RTVSPost2010Prop43
 90
        3
102
RTVSPost2010PropOp43
 70
     1
102
RTVSPost2010Prop44ColorIndex
 90
        5
102
RTVSPost2010Prop44ColorRGB
 90
      255
102
RTVSPost2010PropOp44
 70
     1
102
RTVSPost2010Prop45
280
     0
102
RTVSPost2010PropOp45
 70
     1
102
RTVSPost2010Prop46
 90
       50
102
RTVSPost2010PropOp46
 70
     1
102
RTVSPost2010Prop47
 90
       50
102
RTVSPost2010PropOp47
 70
     1
102
RTVSPost2010Prop48
 90
       50
102
RTVSPost2010PropOp48
 70
     1
102
RTVSPost2010Prop49
280
     0
102
RTVSPost2010PropOp49
 70
     1
102
RTVSPost2010Prop50
 90
       50
102
RTVSPost2010PropOp50
 70
     1
102
RTVSPost2010Prop51ColorIndex
 90
      256
102
RTVSPost2010Prop51ColorRGB
 90
-16777216
102
RTVSPost2010PropOp51
 70
     0
102
RTVSPost2010Prop52
140
1.0
102
RTVSPost2010PropOp52
 70
     0
102
RTVSPost2010Prop53
 90
        2
102
RTVSPost2010PropOp53
 70
     1
102
RTVSPost2010Prop54
  1
strokes_ogs.tif
102
RTVSPost2010PropOp54
 70
     1
102
RTVSPost2010Prop55
280
     0
102
RTVSPost2010PropOp55
 70
     1
102
RTVSPost2010Prop56
140
1.0
102
RTVSPost2010PropOp56
 70
     1
102
RTVSPost2010Prop57
140
1.0
102
RTVSPost2010PropOp57
 70
     1
  0
XRECORD
  5
727
102
{ACAD_REACTORS
330
726
102
}
330
726
100
AcDbXrecord
280
     1
102
RTVSPropertyOp0
 70
     1
102
RTVSPropertyOp1
 70
     1
102
RTVSPropertyOp2
 70
     1
102
RTVSPropertyOp3
 70
     1
102
RTVSPropertyOp4
 70
     1
102
RTVSPropertyOp5
 70
     1
102
RTVSPropertyOp6
 70
     1
102
RTVSPropertyOp7
 70
     1
102
RTVSPropertyOp8
 70
     1
102
RTVSPropertyOp9
 70
     1
102
RTVSPropertyOp10
 70
     1
102
RTVSPropertyOp11
 70
     1
102
RTVSPropertyOp12
 70
     1
102
RTVSPropertyOp13
 70
     1
102
RTVSPropertyOp14
 70
     1
102
RTVSPropertyOp15
 70
     1
102
RTVSPropertyOp16
 70
     1
102
RTVSPropertyOp17
 70
     1
102
RTVSPropertyOp18
 70
     1
102
RTVSPropertyOp19
 70
     1
102
RTVSPropertyOp20
 70
     1
102
RTVSPropertyOp21
 70
     1
102
RTVSPropertyOp22
 70
     1
102
RTVSPropertyOp23
 70
     1
102
RTVSPropertyOp24
 70
     1
102
RTVSPropertyOp25
 70
     1
102
RTVSPropertyOp26
 70
     1
102
RTVSPropertyOp27
 70
     1
102
RTVSPropertyOp28
 70
     1
102
RTVSPropertyOp29
 70
     1
102
RTVSPropertyOp30
 70
     1
102
RTVSPropertyOp31
 70
     1
102
RTVSPropertyOp32
 70
     1
102
RTVSPropertyOp33
 70
     1
102
RTVSPropertyOp34
 70
     1
102
RTVSPropertyOp35
 70
     1
102
RTVSPropertyOp36
 70
     1
102
RTVSPropertyOp37
 70
     1
102
RTVSPropertyOp38
 70
     1
102
RTVSPropertyOp39
 70
     1
102
RTVSPropertyOp40
 70
     1
102
RTVSPropertyOp41
 70
     1
102
RTVSPropertyOp42
 70
     1
102
RTVSPropertyOp43
 70
     1
102
RTVSPropertyOp44
 70
     1
102
RTVSPropertyOp45
 70
     1
102
RTVSPropertyOp46
 70
     1
102
RTVSPropertyOp47
 70
     1
102
RTVSPropertyOp48
 70
     1
102
RTVSPropertyOp49
 70
     1
102
RTVSPropertyOp50
 70
     1
102
RTVSPropertyOp51
 70
     0
102
RTVSPropertyOp52
 70
     0
102
RTVSPropertyOp53
 70
     1
102
RTVSPropertyOp54
 70
     1
102
RTVSPropertyOp55
 70
     1
102
RTVSPropertyOp56
 70
     1
102
RTVSPropertyOp57
 70
     1
102
RTVSPost2010Prop28
280
     0
102
RTVSPost2010PropOp28
 70
     1
102
RTVSPost2010Prop29
280
     1
102
RTVSPost2010PropOp29
 70
     1
102
RTVSPost2010Prop30
280
     1
102
RTVSPost2010PropOp30
 70
     1
102
RTVSPost2010Prop31
280
     0
102
RTVSPost2010PropOp31
 70
     1
102
RTVSPost2010Prop32
280
     0
102
RTVSPost2010PropOp32
 70
     1
102
RTVSPost2010Prop33
280
     0
102
RTVSPost2010PropOp33
 70
     1
102
RTVSPost2010Prop34
280
     0
102
RTVSPost2010PropOp34
 70
     1
102
RTVSPost2010Prop35
280
     0
102
RTVSPost2010PropOp35
 70
     1
102
RTVSPost2010Prop36
280
     0
102
RTVSPost2010PropOp36
 70
     1
102
RTVSPost2010Prop37
 90
       50
102
RTVSPost2010PropOp37
 70
     1
102
RTVSPost2010Prop38
140
0.0
102
RTVSPost2010PropOp38
 70
     1
102
RTVSPost2010Prop39
140
1.0
102
RTVSPost2010PropOp39
 70
     1
102
RTVSPost2010Prop40
 90
        0
102
RTVSPost2010PropOp40
 70
     1
102
RTVSPost2010Prop41ColorIndex
 90
       18
102
RTVSPost2010Prop41ColorRGB
 90
        0
102
RTVSPost2010PropOp41
 70
     1
102
RTVSPost2010Prop42
 90
       50
102
RTVSPost2010PropOp42
 70
     1
102
RTVSPost2010Prop43
 90
        3
102
RTVSPost2010PropOp43
 70
     1
102
RTVSPost2010Prop44ColorIndex
 90
        5
102
RTVSPost2010Prop44ColorRGB
 90
      255
102
RTVSPost2010PropOp44
 70
     1
102
RTVSPost2010Prop45
280
     0
102
RTVSPost2010PropOp45
 70
     1
102
RTVSPost2010Prop46
 90
       50
102
RTVSPost2010PropOp46
 70
     1
102
RTVSPost2010Prop47
 90
       50
102
RTVSPost2010PropOp47
 70
     1
102
RTVSPost2010Prop48
 90
       50
102
RTVSPost2010PropOp48
 70
     1
102
RTVSPost2010Prop49
280
     0
102
RTVSPost2010PropOp49
 70
     1
102
RTVSPost2010Prop50
 90
       50
102
RTVSPost2010PropOp50
 70
     1
102
RTVSPost2010Prop51ColorIndex
 90
      256
102
RTVSPost2010Prop51ColorRGB
 90
-16777216
102
RTVSPost2010PropOp51
 70
     0
102
RTVSPost2010Prop52
140
1.0
102
RTVSPost2010PropOp52
 70
     0
102
RTVSPost2010Prop53
 90
        2
102
RTVSPost2010PropOp53
 70
     1
102
RTVSPost2010Prop54
  1
strokes_ogs.tif
102
RTVSPost2010PropOp54
 70
     1
102
RTVSPost2010Prop55
280
     0
102
RTVSPost2010PropOp55
 70
     1
102
RTVSPost2010Prop56
140
1.0
102
RTVSPost2010PropOp56
 70
     1
102
RTVSPost2010Prop57
140
1.0
102
RTVSPost2010PropOp57
 70
     1
  0
XRECORD
  5
71F
102
{ACAD_REACTORS
330
71E
102
}
330
71E
100
AcDbXrecord
280
     1
102
RTVSPropertyOp0
 70
     1
102
RTVSPropertyOp1
 70
     1
102
RTVSPropertyOp2
 70
     1
102
RTVSPropertyOp3
 70
     1
102
RTVSPropertyOp4
 70
     1
102
RTVSPropertyOp5
 70
     1
102
RTVSPropertyOp6
 70
     1
102
RTVSPropertyOp7
 70
     1
102
RTVSPropertyOp8
 70
     1
102
RTVSPropertyOp9
 70
     1
102
RTVSPropertyOp10
 70
     1
102
RTVSPropertyOp11
 70
     1
102
RTVSPropertyOp12
 70
     1
102
RTVSPropertyOp13
 70
     1
102
RTVSPropertyOp14
 70
     1
102
RTVSPropertyOp15
 70
     1
102
RTVSPropertyOp16
 70
     1
102
RTVSPropertyOp17
 70
     1
102
RTVSPropertyOp18
 70
     1
102
RTVSPropertyOp19
 70
     1
102
RTVSPropertyOp20
 70
     1
102
RTVSPropertyOp21
 70
     1
102
RTVSPropertyOp22
 70
     1
102
RTVSPropertyOp23
 70
     1
102
RTVSPropertyOp24
 70
     1
102
RTVSPropertyOp25
 70
     1
102
RTVSPropertyOp26
 70
     1
102
RTVSPropertyOp27
 70
     1
102
RTVSPropertyOp28
 70
     1
102
RTVSPropertyOp29
 70
     1
102
RTVSPropertyOp30
 70
     1
102
RTVSPropertyOp31
 70
     1
102
RTVSPropertyOp32
 70
     1
102
RTVSPropertyOp33
 70
     1
102
RTVSPropertyOp34
 70
     1
102
RTVSPropertyOp35
 70
     1
102
RTVSPropertyOp36
 70
     1
102
RTVSPropertyOp37
 70
     1
102
RTVSPropertyOp38
 70
     1
102
RTVSPropertyOp39
 70
     1
102
RTVSPropertyOp40
 70
     1
102
RTVSPropertyOp41
 70
     1
102
RTVSPropertyOp42
 70
     1
102
RTVSPropertyOp43
 70
     1
102
RTVSPropertyOp44
 70
     1
102
RTVSPropertyOp45
 70
     1
102
RTVSPropertyOp46
 70
     1
102
RTVSPropertyOp47
 70
     1
102
RTVSPropertyOp48
 70
     1
102
RTVSPropertyOp49
 70
     1
102
RTVSPropertyOp50
 70
     1
102
RTVSPropertyOp51
 70
     0
102
RTVSPropertyOp52
 70
     0
102
RTVSPropertyOp53
 70
     1
102
RTVSPropertyOp54
 70
     1
102
RTVSPropertyOp55
 70
     1
102
RTVSPropertyOp56
 70
     1
102
RTVSPropertyOp57
 70
     1
102
RTVSPost2010Prop28
280
     0
102
RTVSPost2010PropOp28
 70
     1
102
RTVSPost2010Prop29
280
     1
102
RTVSPost2010PropOp29
 70
     1
102
RTVSPost2010Prop30
280
     1
102
RTVSPost2010PropOp30
 70
     1
102
RTVSPost2010Prop31
280
     0
102
RTVSPost2010PropOp31
 70
     1
102
RTVSPost2010Prop32
280
     0
102
RTVSPost2010PropOp32
 70
     1
102
RTVSPost2010Prop33
280
     0
102
RTVSPost2010PropOp33
 70
     1
102
RTVSPost2010Prop34
280
     0
102
RTVSPost2010PropOp34
 70
     1
102
RTVSPost2010Prop35
280
     0
102
RTVSPost2010PropOp35
 70
     1
102
RTVSPost2010Prop36
280
     0
102
RTVSPost2010PropOp36
 70
     1
102
RTVSPost2010Prop37
 90
       50
102
RTVSPost2010PropOp37
 70
     1
102
RTVSPost2010Prop38
140
0.0
102
RTVSPost2010PropOp38
 70
     1
102
RTVSPost2010Prop39
140
1.0
102
RTVSPost2010PropOp39
 70
     1
102
RTVSPost2010Prop40
 90
        0
102
RTVSPost2010PropOp40
 70
     1
102
RTVSPost2010Prop41ColorIndex
 90
       18
102
RTVSPost2010Prop41ColorRGB
 90
        0
102
RTVSPost2010PropOp41
 70
     1
102
RTVSPost2010Prop42
 90
       50
102
RTVSPost2010PropOp42
 70
     1
102
RTVSPost2010Prop43
 90
        3
102
RTVSPost2010PropOp43
 70
     1
102
RTVSPost2010Prop44ColorIndex
 90
        5
102
RTVSPost2010Prop44ColorRGB
 90
      255
102
RTVSPost2010PropOp44
 70
     1
102
RTVSPost2010Prop45
280
     0
102
RTVSPost2010PropOp45
 70
     1
102
RTVSPost2010Prop46
 90
       50
102
RTVSPost2010PropOp46
 70
     1
102
RTVSPost2010Prop47
 90
       50
102
RTVSPost2010PropOp47
 70
     1
102
RTVSPost2010Prop48
 90
       50
102
RTVSPost2010PropOp48
 70
     1
102
RTVSPost2010Prop49
280
     0
102
RTVSPost2010PropOp49
 70
     1
102
RTVSPost2010Prop50
 90
       50
102
RTVSPost2010PropOp50
 70
     1
102
RTVSPost2010Prop51ColorIndex
 90
      256
102
RTVSPost2010Prop51ColorRGB
 90
-16777216
102
RTVSPost2010PropOp51
 70
     0
102
RTVSPost2010Prop52
140
1.0
102
RTVSPost2010PropOp52
 70
     0
102
RTVSPost2010Prop53
 90
        2
102
RTVSPost2010PropOp53
 70
     1
102
RTVSPost2010Prop54
  1
strokes_ogs.tif
102
RTVSPost2010PropOp54
 70
     1
102
RTVSPost2010Prop55
280
     0
102
RTVSPost2010PropOp55
 70
     1
102
RTVSPost2010Prop56
140
1.0
102
RTVSPost2010PropOp56
 70
     1
102
RTVSPost2010Prop57
140
1.0
102
RTVSPost2010PropOp57
 70
     1
  0
XRECORD
  5
703
102
{ACAD_REACTORS
330
702
102
}
330
702
100
AcDbXrecord
280
     1
102
RTVSPropertyOp0
 70
     1
102
RTVSPropertyOp1
 70
     1
102
RTVSPropertyOp2
 70
     1
102
RTVSPropertyOp3
 70
     1
102
RTVSPropertyOp4
 70
     1
102
RTVSPropertyOp5
 70
     1
102
RTVSPropertyOp6
 70
     1
102
RTVSPropertyOp7
 70
     1
102
RTVSPropertyOp8
 70
     1
102
RTVSPropertyOp9
 70
     1
102
RTVSPropertyOp10
 70
     1
102
RTVSPropertyOp11
 70
     1
102
RTVSPropertyOp12
 70
     1
102
RTVSPropertyOp13
 70
     1
102
RTVSPropertyOp14
 70
     1
102
RTVSPropertyOp15
 70
     1
102
RTVSPropertyOp16
 70
     1
102
RTVSPropertyOp17
 70
     1
102
RTVSPropertyOp18
 70
     1
102
RTVSPropertyOp19
 70
     1
102
RTVSPropertyOp20
 70
     1
102
RTVSPropertyOp21
 70
     1
102
RTVSPropertyOp22
 70
     1
102
RTVSPropertyOp23
 70
     1
102
RTVSPropertyOp24
 70
     1
102
RTVSPropertyOp25
 70
     1
102
RTVSPropertyOp26
 70
     1
102
RTVSPropertyOp27
 70
     1
102
RTVSPropertyOp28
 70
     1
102
RTVSPropertyOp29
 70
     1
102
RTVSPropertyOp30
 70
     1
102
RTVSPropertyOp31
 70
     1
102
RTVSPropertyOp32
 70
     1
102
RTVSPropertyOp33
 70
     1
102
RTVSPropertyOp34
 70
     1
102
RTVSPropertyOp35
 70
     1
102
RTVSPropertyOp36
 70
     1
102
RTVSPropertyOp37
 70
     1
102
RTVSPropertyOp38
 70
     1
102
RTVSPropertyOp39
 70
     1
102
RTVSPropertyOp40
 70
     1
102
RTVSPropertyOp41
 70
     1
102
RTVSPropertyOp42
 70
     1
102
RTVSPropertyOp43
 70
     1
102
RTVSPropertyOp44
 70
     1
102
RTVSPropertyOp45
 70
     1
102
RTVSPropertyOp46
 70
     1
102
RTVSPropertyOp47
 70
     1
102
RTVSPropertyOp48
 70
     1
102
RTVSPropertyOp49
 70
     1
102
RTVSPropertyOp50
 70
     1
102
RTVSPropertyOp51
 70
     0
102
RTVSPropertyOp52
 70
     0
102
RTVSPropertyOp53
 70
     1
102
RTVSPropertyOp54
 70
     1
102
RTVSPropertyOp55
 70
     1
102
RTVSPropertyOp56
 70
     1
102
RTVSPropertyOp57
 70
     1
102
RTVSPost2010Prop28
280
     0
102
RTVSPost2010PropOp28
 70
     1
102
RTVSPost2010Prop29
280
     1
102
RTVSPost2010PropOp29
 70
     1
102
RTVSPost2010Prop30
280
     1
102
RTVSPost2010PropOp30
 70
     1
102
RTVSPost2010Prop31
280
     0
102
RTVSPost2010PropOp31
 70
     1
102
RTVSPost2010Prop32
280
     0
102
RTVSPost2010PropOp32
 70
     1
102
RTVSPost2010Prop33
280
     0
102
RTVSPost2010PropOp33
 70
     1
102
RTVSPost2010Prop34
280
     0
102
RTVSPost2010PropOp34
 70
     1
102
RTVSPost2010Prop35
280
     0
102
RTVSPost2010PropOp35
 70
     1
102
RTVSPost2010Prop36
280
     0
102
RTVSPost2010PropOp36
 70
     1
102
RTVSPost2010Prop37
 90
       50
102
RTVSPost2010PropOp37
 70
     1
102
RTVSPost2010Prop38
140
0.0
102
RTVSPost2010PropOp38
 70
     1
102
RTVSPost2010Prop39
140
1.0
102
RTVSPost2010PropOp39
 70
     1
102
RTVSPost2010Prop40
 90
        0
102
RTVSPost2010PropOp40
 70
     1
102
RTVSPost2010Prop41ColorIndex
 90
       18
102
RTVSPost2010Prop41ColorRGB
 90
        0
102
RTVSPost2010PropOp41
 70
     1
102
RTVSPost2010Prop42
 90
       50
102
RTVSPost2010PropOp42
 70
     1
102
RTVSPost2010Prop43
 90
        3
102
RTVSPost2010PropOp43
 70
     1
102
RTVSPost2010Prop44ColorIndex
 90
        5
102
RTVSPost2010Prop44ColorRGB
 90
      255
102
RTVSPost2010PropOp44
 70
     1
102
RTVSPost2010Prop45
280
     0
102
RTVSPost2010PropOp45
 70
     1
102
RTVSPost2010Prop46
 90
       50
102
RTVSPost2010PropOp46
 70
     1
102
RTVSPost2010Prop47
 90
       50
102
RTVSPost2010PropOp47
 70
     1
102
RTVSPost2010Prop48
 90
       50
102
RTVSPost2010PropOp48
 70
     1
102
RTVSPost2010Prop49
280
     0
102
RTVSPost2010PropOp49
 70
     1
102
RTVSPost2010Prop50
 90
       50
102
RTVSPost2010PropOp50
 70
     1
102
RTVSPost2010Prop51ColorIndex
 90
      256
102
RTVSPost2010Prop51ColorRGB
 90
-16777216
102
RTVSPost2010PropOp51
 70
     0
102
RTVSPost2010Prop52
140
1.0
102
RTVSPost2010PropOp52
 70
     0
102
RTVSPost2010Prop53
 90
        2
102
RTVSPost2010PropOp53
 70
     1
102
RTVSPost2010Prop54
  1
strokes_ogs.tif
102
RTVSPost2010PropOp54
 70
     1
102
RTVSPost2010Prop55
280
     0
102
RTVSPost2010PropOp55
 70
     1
102
RTVSPost2010Prop56
140
1.0
102
RTVSPost2010PropOp56
 70
     1
102
RTVSPost2010Prop57
140
1.0
102
RTVSPost2010PropOp57
 70
     1
  0
XRECORD
  5
705
102
{ACAD_REACTORS
330
704
102
}
330
704
100
AcDbXrecord
280
     1
102
RTVSPropertyOp0
 70
     1
102
RTVSPropertyOp1
 70
     1
102
RTVSPropertyOp2
 70
     1
102
RTVSPropertyOp3
 70
     1
102
RTVSPropertyOp4
 70
     1
102
RTVSPropertyOp5
 70
     1
102
RTVSPropertyOp6
 70
     1
102
RTVSPropertyOp7
 70
     1
102
RTVSPropertyOp8
 70
     1
102
RTVSPropertyOp9
 70
     1
102
RTVSPropertyOp10
 70
     1
102
RTVSPropertyOp11
 70
     1
102
RTVSPropertyOp12
 70
     1
102
RTVSPropertyOp13
 70
     1
102
RTVSPropertyOp14
 70
     1
102
RTVSPropertyOp15
 70
     1
102
RTVSPropertyOp16
 70
     1
102
RTVSPropertyOp17
 70
     1
102
RTVSPropertyOp18
 70
     1
102
RTVSPropertyOp19
 70
     1
102
RTVSPropertyOp20
 70
     1
102
RTVSPropertyOp21
 70
     1
102
RTVSPropertyOp22
 70
     1
102
RTVSPropertyOp23
 70
     1
102
RTVSPropertyOp24
 70
     1
102
RTVSPropertyOp25
 70
     1
102
RTVSPropertyOp26
 70
     1
102
RTVSPropertyOp27
 70
     1
102
RTVSPropertyOp28
 70
     1
102
RTVSPropertyOp29
 70
     1
102
RTVSPropertyOp30
 70
     1
102
RTVSPropertyOp31
 70
     1
102
RTVSPropertyOp32
 70
     1
102
RTVSPropertyOp33
 70
     1
102
RTVSPropertyOp34
 70
     1
102
RTVSPropertyOp35
 70
     1
102
RTVSPropertyOp36
 70
     1
102
RTVSPropertyOp37
 70
     1
102
RTVSPropertyOp38
 70
     1
102
RTVSPropertyOp39
 70
     1
102
RTVSPropertyOp40
 70
     1
102
RTVSPropertyOp41
 70
     1
102
RTVSPropertyOp42
 70
     1
102
RTVSPropertyOp43
 70
     1
102
RTVSPropertyOp44
 70
     1
102
RTVSPropertyOp45
 70
     1
102
RTVSPropertyOp46
 70
     1
102
RTVSPropertyOp47
 70
     1
102
RTVSPropertyOp48
 70
     1
102
RTVSPropertyOp49
 70
     1
102
RTVSPropertyOp50
 70
     1
102
RTVSPropertyOp51
 70
     0
102
RTVSPropertyOp52
 70
     0
102
RTVSPropertyOp53
 70
     1
102
RTVSPropertyOp54
 70
     1
102
RTVSPropertyOp55
 70
     1
102
RTVSPropertyOp56
 70
     1
102
RTVSPropertyOp57
 70
     1
102
RTVSPost2010Prop28
280
     0
102
RTVSPost2010PropOp28
 70
     1
102
RTVSPost2010Prop29
280
     1
102
RTVSPost2010PropOp29
 70
     1
102
RTVSPost2010Prop30
280
     1
102
RTVSPost2010PropOp30
 70
     1
102
RTVSPost2010Prop31
280
     0
102
RTVSPost2010PropOp31
 70
     1
102
RTVSPost2010Prop32
280
     0
102
RTVSPost2010PropOp32
 70
     1
102
RTVSPost2010Prop33
280
     0
102
RTVSPost2010PropOp33
 70
     1
102
RTVSPost2010Prop34
280
     0
102
RTVSPost2010PropOp34
 70
     1
102
RTVSPost2010Prop35
280
     0
102
RTVSPost2010PropOp35
 70
     1
102
RTVSPost2010Prop36
280
     0
102
RTVSPost2010PropOp36
 70
     1
102
RTVSPost2010Prop37
 90
       50
102
RTVSPost2010PropOp37
 70
     1
102
RTVSPost2010Prop38
140
0.0
102
RTVSPost2010PropOp38
 70
     1
102
RTVSPost2010Prop39
140
1.0
102
RTVSPost2010PropOp39
 70
     1
102
RTVSPost2010Prop40
 90
        0
102
RTVSPost2010PropOp40
 70
     1
102
RTVSPost2010Prop41ColorIndex
 90
       18
102
RTVSPost2010Prop41ColorRGB
 90
        0
102
RTVSPost2010PropOp41
 70
     1
102
RTVSPost2010Prop42
 90
       50
102
RTVSPost2010PropOp42
 70
     1
102
RTVSPost2010Prop43
 90
        3
102
RTVSPost2010PropOp43
 70
     1
102
RTVSPost2010Prop44ColorIndex
 90
        5
102
RTVSPost2010Prop44ColorRGB
 90
      255
102
RTVSPost2010PropOp44
 70
     1
102
RTVSPost2010Prop45
280
     0
102
RTVSPost2010PropOp45
 70
     1
102
RTVSPost2010Prop46
 90
       50
102
RTVSPost2010PropOp46
 70
     1
102
RTVSPost2010Prop47
 90
       50
102
RTVSPost2010PropOp47
 70
     1
102
RTVSPost2010Prop48
 90
       50
102
RTVSPost2010PropOp48
 70
     1
102
RTVSPost2010Prop49
280
     0
102
RTVSPost2010PropOp49
 70
     1
102
RTVSPost2010Prop50
 90
       50
102
RTVSPost2010PropOp50
 70
     1
102
RTVSPost2010Prop51ColorIndex
 90
      256
102
RTVSPost2010Prop51ColorRGB
 90
-16777216
102
RTVSPost2010PropOp51
 70
     0
102
RTVSPost2010Prop52
140
1.0
102
RTVSPost2010PropOp52
 70
     0
102
RTVSPost2010Prop53
 90
        2
102
RTVSPost2010PropOp53
 70
     1
102
RTVSPost2010Prop54
  1
strokes_ogs.tif
102
RTVSPost2010PropOp54
 70
     1
102
RTVSPost2010Prop55
280
     0
102
RTVSPost2010PropOp55
 70
     1
102
RTVSPost2010Prop56
140
1.0
102
RTVSPost2010PropOp56
 70
     1
102
RTVSPost2010Prop57
140
1.0
102
RTVSPost2010PropOp57
 70
     1
  0
XRECORD
  5
707
102
{ACAD_REACTORS
330
706
102
}
330
706
100
AcDbXrecord
280
     1
102
RTVSPropertyOp0
 70
     1
102
RTVSPropertyOp1
 70
     1
102
RTVSPropertyOp2
 70
     1
102
RTVSPropertyOp3
 70
     1
102
RTVSPropertyOp4
 70
     1
102
RTVSPropertyOp5
 70
     1
102
RTVSPropertyOp6
 70
     1
102
RTVSPropertyOp7
 70
     1
102
RTVSPropertyOp8
 70
     1
102
RTVSPropertyOp9
 70
     1
102
RTVSPropertyOp10
 70
     1
102
RTVSPropertyOp11
 70
     1
102
RTVSPropertyOp12
 70
     1
102
RTVSPropertyOp13
 70
     1
102
RTVSPropertyOp14
 70
     1
102
RTVSPropertyOp15
 70
     1
102
RTVSPropertyOp16
 70
     1
102
RTVSPropertyOp17
 70
     1
102
RTVSPropertyOp18
 70
     1
102
RTVSPropertyOp19
 70
     1
102
RTVSPropertyOp20
 70
     1
102
RTVSPropertyOp21
 70
     1
102
RTVSPropertyOp22
 70
     1
102
RTVSPropertyOp23
 70
     1
102
RTVSPropertyOp24
 70
     1
102
RTVSPropertyOp25
 70
     1
102
RTVSPropertyOp26
 70
     1
102
RTVSPropertyOp27
 70
     1
102
RTVSPropertyOp28
 70
     1
102
RTVSPropertyOp29
 70
     1
102
RTVSPropertyOp30
 70
     1
102
RTVSPropertyOp31
 70
     1
102
RTVSPropertyOp32
 70
     1
102
RTVSPropertyOp33
 70
     1
102
RTVSPropertyOp34
 70
     1
102
RTVSPropertyOp35
 70
     1
102
RTVSPropertyOp36
 70
     1
102
RTVSPropertyOp37
 70
     1
102
RTVSPropertyOp38
 70
     1
102
RTVSPropertyOp39
 70
     1
102
RTVSPropertyOp40
 70
     1
102
RTVSPropertyOp41
 70
     1
102
RTVSPropertyOp42
 70
     1
102
RTVSPropertyOp43
 70
     1
102
RTVSPropertyOp44
 70
     1
102
RTVSPropertyOp45
 70
     1
102
RTVSPropertyOp46
 70
     1
102
RTVSPropertyOp47
 70
     1
102
RTVSPropertyOp48
 70
     1
102
RTVSPropertyOp49
 70
     1
102
RTVSPropertyOp50
 70
     1
102
RTVSPropertyOp51
 70
     0
102
RTVSPropertyOp52
 70
     0
102
RTVSPropertyOp53
 70
     1
102
RTVSPropertyOp54
 70
     1
102
RTVSPropertyOp55
 70
     1
102
RTVSPropertyOp56
 70
     1
102
RTVSPropertyOp57
 70
     1
102
RTVSPost2010Prop28
280
     0
102
RTVSPost2010PropOp28
 70
     1
102
RTVSPost2010Prop29
280
     1
102
RTVSPost2010PropOp29
 70
     1
102
RTVSPost2010Prop30
280
     1
102
RTVSPost2010PropOp30
 70
     1
102
RTVSPost2010Prop31
280
     0
102
RTVSPost2010PropOp31
 70
     1
102
RTVSPost2010Prop32
280
     0
102
RTVSPost2010PropOp32
 70
     1
102
RTVSPost2010Prop33
280
     0
102
RTVSPost2010PropOp33
 70
     1
102
RTVSPost2010Prop34
280
     0
102
RTVSPost2010PropOp34
 70
     1
102
RTVSPost2010Prop35
280
     0
102
RTVSPost2010PropOp35
 70
     1
102
RTVSPost2010Prop36
280
     0
102
RTVSPost2010PropOp36
 70
     1
102
RTVSPost2010Prop37
 90
       50
102
RTVSPost2010PropOp37
 70
     1
102
RTVSPost2010Prop38
140
0.0
102
RTVSPost2010PropOp38
 70
     1
102
RTVSPost2010Prop39
140
1.0
102
RTVSPost2010PropOp39
 70
     1
102
RTVSPost2010Prop40
 90
        0
102
RTVSPost2010PropOp40
 70
     1
102
RTVSPost2010Prop41ColorIndex
 90
       18
102
RTVSPost2010Prop41ColorRGB
 90
        0
102
RTVSPost2010PropOp41
 70
     1
102
RTVSPost2010Prop42
 90
       50
102
RTVSPost2010PropOp42
 70
     1
102
RTVSPost2010Prop43
 90
        3
102
RTVSPost2010PropOp43
 70
     1
102
RTVSPost2010Prop44ColorIndex
 90
        5
102
RTVSPost2010Prop44ColorRGB
 90
      255
102
RTVSPost2010PropOp44
 70
     1
102
RTVSPost2010Prop45
280
     0
102
RTVSPost2010PropOp45
 70
     1
102
RTVSPost2010Prop46
 90
       50
102
RTVSPost2010PropOp46
 70
     1
102
RTVSPost2010Prop47
 90
       50
102
RTVSPost2010PropOp47
 70
     1
102
RTVSPost2010Prop48
 90
       50
102
RTVSPost2010PropOp48
 70
     1
102
RTVSPost2010Prop49
280
     0
102
RTVSPost2010PropOp49
 70
     1
102
RTVSPost2010Prop50
 90
       50
102
RTVSPost2010PropOp50
 70
     1
102
RTVSPost2010Prop51ColorIndex
 90
      256
102
RTVSPost2010Prop51ColorRGB
 90
-16777216
102
RTVSPost2010PropOp51
 70
     0
102
RTVSPost2010Prop52
140
1.0
102
RTVSPost2010PropOp52
 70
     0
102
RTVSPost2010Prop53
 90
        2
102
RTVSPost2010PropOp53
 70
     1
102
RTVSPost2010Prop54
  1
strokes_ogs.tif
102
RTVSPost2010PropOp54
 70
     1
102
RTVSPost2010Prop55
280
     0
102
RTVSPost2010PropOp55
 70
     1
102
RTVSPost2010Prop56
140
1.0
102
RTVSPost2010PropOp56
 70
     1
102
RTVSPost2010Prop57
140
1.0
102
RTVSPost2010PropOp57
 70
     1
  0
XRECORD
  5
709
102
{ACAD_REACTORS
330
708
102
}
330
708
100
AcDbXrecord
280
     1
102
RTVSPropertyOp0
 70
     1
102
RTVSPropertyOp1
 70
     1
102
RTVSPropertyOp2
 70
     1
102
RTVSPropertyOp3
 70
     1
102
RTVSPropertyOp4
 70
     1
102
RTVSPropertyOp5
 70
     1
102
RTVSPropertyOp6
 70
     1
102
RTVSPropertyOp7
 70
     1
102
RTVSPropertyOp8
 70
     1
102
RTVSPropertyOp9
 70
     1
102
RTVSPropertyOp10
 70
     1
102
RTVSPropertyOp11
 70
     1
102
RTVSPropertyOp12
 70
     1
102
RTVSPropertyOp13
 70
     1
102
RTVSPropertyOp14
 70
     1
102
RTVSPropertyOp15
 70
     1
102
RTVSPropertyOp16
 70
     1
102
RTVSPropertyOp17
 70
     1
102
RTVSPropertyOp18
 70
     1
102
RTVSPropertyOp19
 70
     1
102
RTVSPropertyOp20
 70
     1
102
RTVSPropertyOp21
 70
     1
102
RTVSPropertyOp22
 70
     1
102
RTVSPropertyOp23
 70
     1
102
RTVSPropertyOp24
 70
     1
102
RTVSPropertyOp25
 70
     1
102
RTVSPropertyOp26
 70
     1
102
RTVSPropertyOp27
 70
     1
102
RTVSPropertyOp28
 70
     1
102
RTVSPropertyOp29
 70
     1
102
RTVSPropertyOp30
 70
     1
102
RTVSPropertyOp31
 70
     1
102
RTVSPropertyOp32
 70
     1
102
RTVSPropertyOp33
 70
     1
102
RTVSPropertyOp34
 70
     1
102
RTVSPropertyOp35
 70
     1
102
RTVSPropertyOp36
 70
     1
102
RTVSPropertyOp37
 70
     1
102
RTVSPropertyOp38
 70
     1
102
RTVSPropertyOp39
 70
     1
102
RTVSPropertyOp40
 70
     1
102
RTVSPropertyOp41
 70
     1
102
RTVSPropertyOp42
 70
     1
102
RTVSPropertyOp43
 70
     1
102
RTVSPropertyOp44
 70
     1
102
RTVSPropertyOp45
 70
     1
102
RTVSPropertyOp46
 70
     1
102
RTVSPropertyOp47
 70
     1
102
RTVSPropertyOp48
 70
     1
102
RTVSPropertyOp49
 70
     1
102
RTVSPropertyOp50
 70
     1
102
RTVSPropertyOp51
 70
     0
102
RTVSPropertyOp52
 70
     0
102
RTVSPropertyOp53
 70
     1
102
RTVSPropertyOp54
 70
     1
102
RTVSPropertyOp55
 70
     1
102
RTVSPropertyOp56
 70
     1
102
RTVSPropertyOp57
 70
     1
102
RTVSPost2010Prop28
280
     0
102
RTVSPost2010PropOp28
 70
     1
102
RTVSPost2010Prop29
280
     1
102
RTVSPost2010PropOp29
 70
     1
102
RTVSPost2010Prop30
280
     1
102
RTVSPost2010PropOp30
 70
     1
102
RTVSPost2010Prop31
280
     0
102
RTVSPost2010PropOp31
 70
     1
102
RTVSPost2010Prop32
280
     0
102
RTVSPost2010PropOp32
 70
     1
102
RTVSPost2010Prop33
280
     0
102
RTVSPost2010PropOp33
 70
     1
102
RTVSPost2010Prop34
280
     0
102
RTVSPost2010PropOp34
 70
     1
102
RTVSPost2010Prop35
280
     0
102
RTVSPost2010PropOp35
 70
     1
102
RTVSPost2010Prop36
280
     0
102
RTVSPost2010PropOp36
 70
     1
102
RTVSPost2010Prop37
 90
       50
102
RTVSPost2010PropOp37
 70
     1
102
RTVSPost2010Prop38
140
0.0
102
RTVSPost2010PropOp38
 70
     1
102
RTVSPost2010Prop39
140
1.0
102
RTVSPost2010PropOp39
 70
     1
102
RTVSPost2010Prop40
 90
        0
102
RTVSPost2010PropOp40
 70
     1
102
RTVSPost2010Prop41ColorIndex
 90
       18
102
RTVSPost2010Prop41ColorRGB
 90
        0
102
RTVSPost2010PropOp41
 70
     1
102
RTVSPost2010Prop42
 90
       50
102
RTVSPost2010PropOp42
 70
     1
102
RTVSPost2010Prop43
 90
        3
102
RTVSPost2010PropOp43
 70
     1
102
RTVSPost2010Prop44ColorIndex
 90
        5
102
RTVSPost2010Prop44ColorRGB
 90
      255
102
RTVSPost2010PropOp44
 70
     1
102
RTVSPost2010Prop45
280
     0
102
RTVSPost2010PropOp45
 70
     1
102
RTVSPost2010Prop46
 90
       50
102
RTVSPost2010PropOp46
 70
     1
102
RTVSPost2010Prop47
 90
       50
102
RTVSPost2010PropOp47
 70
     1
102
RTVSPost2010Prop48
 90
       50
102
RTVSPost2010PropOp48
 70
     1
102
RTVSPost2010Prop49
280
     0
102
RTVSPost2010PropOp49
 70
     1
102
RTVSPost2010Prop50
 90
       50
102
RTVSPost2010PropOp50
 70
     1
102
RTVSPost2010Prop51ColorIndex
 90
      256
102
RTVSPost2010Prop51ColorRGB
 90
-16777216
102
RTVSPost2010PropOp51
 70
     0
102
RTVSPost2010Prop52
140
1.0
102
RTVSPost2010PropOp52
 70
     0
102
RTVSPost2010Prop53
 90
        2
102
RTVSPost2010PropOp53
 70
     1
102
RTVSPost2010Prop54
  1
strokes_ogs.tif
102
RTVSPost2010PropOp54
 70
     1
102
RTVSPost2010Prop55
280
     0
102
RTVSPost2010PropOp55
 70
     1
102
RTVSPost2010Prop56
140
1.0
102
RTVSPost2010PropOp56
 70
     1
102
RTVSPost2010Prop57
140
1.0
102
RTVSPost2010PropOp57
 70
     1
  0
XRECORD
  5
70F
102
{ACAD_REACTORS
330
70E
102
}
330
70E
100
AcDbXrecord
280
     1
102
RTVSPropertyOp0
 70
     1
102
RTVSPropertyOp1
 70
     1
102
RTVSPropertyOp2
 70
     1
102
RTVSPropertyOp3
 70
     1
102
RTVSPropertyOp4
 70
     1
102
RTVSPropertyOp5
 70
     1
102
RTVSPropertyOp6
 70
     1
102
RTVSPropertyOp7
 70
     1
102
RTVSPropertyOp8
 70
     1
102
RTVSPropertyOp9
 70
     1
102
RTVSPropertyOp10
 70
     1
102
RTVSPropertyOp11
 70
     1
102
RTVSPropertyOp12
 70
     1
102
RTVSPropertyOp13
 70
     1
102
RTVSPropertyOp14
 70
     1
102
RTVSPropertyOp15
 70
     1
102
RTVSPropertyOp16
 70
     1
102
RTVSPropertyOp17
 70
     1
102
RTVSPropertyOp18
 70
     1
102
RTVSPropertyOp19
 70
     1
102
RTVSPropertyOp20
 70
     1
102
RTVSPropertyOp21
 70
     1
102
RTVSPropertyOp22
 70
     1
102
RTVSPropertyOp23
 70
     1
102
RTVSPropertyOp24
 70
     1
102
RTVSPropertyOp25
 70
     1
102
RTVSPropertyOp26
 70
     1
102
RTVSPropertyOp27
 70
     1
102
RTVSPropertyOp28
 70
     1
102
RTVSPropertyOp29
 70
     1
102
RTVSPropertyOp30
 70
     1
102
RTVSPropertyOp31
 70
     1
102
RTVSPropertyOp32
 70
     1
102
RTVSPropertyOp33
 70
     1
102
RTVSPropertyOp34
 70
     1
102
RTVSPropertyOp35
 70
     1
102
RTVSPropertyOp36
 70
     1
102
RTVSPropertyOp37
 70
     1
102
RTVSPropertyOp38
 70
     1
102
RTVSPropertyOp39
 70
     1
102
RTVSPropertyOp40
 70
     1
102
RTVSPropertyOp41
 70
     1
102
RTVSPropertyOp42
 70
     1
102
RTVSPropertyOp43
 70
     1
102
RTVSPropertyOp44
 70
     1
102
RTVSPropertyOp45
 70
     1
102
RTVSPropertyOp46
 70
     1
102
RTVSPropertyOp47
 70
     1
102
RTVSPropertyOp48
 70
     1
102
RTVSPropertyOp49
 70
     1
102
RTVSPropertyOp50
 70
     1
102
RTVSPropertyOp51
 70
     0
102
RTVSPropertyOp52
 70
     0
102
RTVSPropertyOp53
 70
     1
102
RTVSPropertyOp54
 70
     1
102
RTVSPropertyOp55
 70
     1
102
RTVSPropertyOp56
 70
     1
102
RTVSPropertyOp57
 70
     1
102
RTVSPost2010Prop28
280
     0
102
RTVSPost2010PropOp28
 70
     1
102
RTVSPost2010Prop29
280
     1
102
RTVSPost2010PropOp29
 70
     1
102
RTVSPost2010Prop30
280
     1
102
RTVSPost2010PropOp30
 70
     1
102
RTVSPost2010Prop31
280
     0
102
RTVSPost2010PropOp31
 70
     1
102
RTVSPost2010Prop32
280
     0
102
RTVSPost2010PropOp32
 70
     1
102
RTVSPost2010Prop33
280
     0
102
RTVSPost2010PropOp33
 70
     1
102
RTVSPost2010Prop34
280
     0
102
RTVSPost2010PropOp34
 70
     1
102
RTVSPost2010Prop35
280
     0
102
RTVSPost2010PropOp35
 70
     1
102
RTVSPost2010Prop36
280
     0
102
RTVSPost2010PropOp36
 70
     1
102
RTVSPost2010Prop37
 90
       50
102
RTVSPost2010PropOp37
 70
     1
102
RTVSPost2010Prop38
140
0.0
102
RTVSPost2010PropOp38
 70
     1
102
RTVSPost2010Prop39
140
1.0
102
RTVSPost2010PropOp39
 70
     1
102
RTVSPost2010Prop40
 90
        0
102
RTVSPost2010PropOp40
 70
     1
102
RTVSPost2010Prop41ColorIndex
 90
       18
102
RTVSPost2010Prop41ColorRGB
 90
        0
102
RTVSPost2010PropOp41
 70
     1
102
RTVSPost2010Prop42
 90
       50
102
RTVSPost2010PropOp42
 70
     1
102
RTVSPost2010Prop43
 90
        3
102
RTVSPost2010PropOp43
 70
     1
102
RTVSPost2010Prop44ColorIndex
 90
        5
102
RTVSPost2010Prop44ColorRGB
 90
      255
102
RTVSPost2010PropOp44
 70
     1
102
RTVSPost2010Prop45
280
     0
102
RTVSPost2010PropOp45
 70
     1
102
RTVSPost2010Prop46
 90
       50
102
RTVSPost2010PropOp46
 70
     1
102
RTVSPost2010Prop47
 90
       50
102
RTVSPost2010PropOp47
 70
     1
102
RTVSPost2010Prop48
 90
       50
102
RTVSPost2010PropOp48
 70
     1
102
RTVSPost2010Prop49
280
     0
102
RTVSPost2010PropOp49
 70
     1
102
RTVSPost2010Prop50
 90
       50
102
RTVSPost2010PropOp50
 70
     1
102
RTVSPost2010Prop51ColorIndex
 90
      256
102
RTVSPost2010Prop51ColorRGB
 90
-16777216
102
RTVSPost2010PropOp51
 70
     0
102
RTVSPost2010Prop52
140
1.0
102
RTVSPost2010PropOp52
 70
     0
102
RTVSPost2010Prop53
 90
        2
102
RTVSPost2010PropOp53
 70
     1
102
RTVSPost2010Prop54
  1
strokes_ogs.tif
102
RTVSPost2010PropOp54
 70
     1
102
RTVSPost2010Prop55
280
     0
102
RTVSPost2010PropOp55
 70
     1
102
RTVSPost2010Prop56
140
1.0
102
RTVSPost2010PropOp56
 70
     1
102
RTVSPost2010Prop57
140
1.0
102
RTVSPost2010PropOp57
 70
     1
  0
XRECORD
  5
723
102
{ACAD_REACTORS
330
722
102
}
330
722
100
AcDbXrecord
280
     1
102
RTVSPropertyOp0
 70
     1
102
RTVSPropertyOp1
 70
     1
102
RTVSPropertyOp2
 70
     1
102
RTVSPropertyOp3
 70
     1
102
RTVSPropertyOp4
 70
     1
102
RTVSPropertyOp5
 70
     1
102
RTVSPropertyOp6
 70
     1
102
RTVSPropertyOp7
 70
     1
102
RTVSPropertyOp8
 70
     1
102
RTVSPropertyOp9
 70
     1
102
RTVSPropertyOp10
 70
     1
102
RTVSPropertyOp11
 70
     1
102
RTVSPropertyOp12
 70
     1
102
RTVSPropertyOp13
 70
     1
102
RTVSPropertyOp14
 70
     1
102
RTVSPropertyOp15
 70
     1
102
RTVSPropertyOp16
 70
     1
102
RTVSPropertyOp17
 70
     1
102
RTVSPropertyOp18
 70
     1
102
RTVSPropertyOp19
 70
     1
102
RTVSPropertyOp20
 70
     1
102
RTVSPropertyOp21
 70
     1
102
RTVSPropertyOp22
 70
     1
102
RTVSPropertyOp23
 70
     1
102
RTVSPropertyOp24
 70
     1
102
RTVSPropertyOp25
 70
     1
102
RTVSPropertyOp26
 70
     1
102
RTVSPropertyOp27
 70
     1
102
RTVSPropertyOp28
 70
     1
102
RTVSPropertyOp29
 70
     1
102
RTVSPropertyOp30
 70
     1
102
RTVSPropertyOp31
 70
     1
102
RTVSPropertyOp32
 70
     1
102
RTVSPropertyOp33
 70
     1
102
RTVSPropertyOp34
 70
     1
102
RTVSPropertyOp35
 70
     1
102
RTVSPropertyOp36
 70
     1
102
RTVSPropertyOp37
 70
     1
102
RTVSPropertyOp38
 70
     1
102
RTVSPropertyOp39
 70
     1
102
RTVSPropertyOp40
 70
     1
102
RTVSPropertyOp41
 70
     1
102
RTVSPropertyOp42
 70
     1
102
RTVSPropertyOp43
 70
     1
102
RTVSPropertyOp44
 70
     1
102
RTVSPropertyOp45
 70
     1
102
RTVSPropertyOp46
 70
     1
102
RTVSPropertyOp47
 70
     1
102
RTVSPropertyOp48
 70
     1
102
RTVSPropertyOp49
 70
     1
102
RTVSPropertyOp50
 70
     1
102
RTVSPropertyOp51
 70
     0
102
RTVSPropertyOp52
 70
     0
102
RTVSPropertyOp53
 70
     1
102
RTVSPropertyOp54
 70
     1
102
RTVSPropertyOp55
 70
     1
102
RTVSPropertyOp56
 70
     1
102
RTVSPropertyOp57
 70
     1
102
RTVSPost2010Prop28
280
     0
102
RTVSPost2010PropOp28
 70
     1
102
RTVSPost2010Prop29
280
     1
102
RTVSPost2010PropOp29
 70
     1
102
RTVSPost2010Prop30
280
     1
102
RTVSPost2010PropOp30
 70
     1
102
RTVSPost2010Prop31
280
     0
102
RTVSPost2010PropOp31
 70
     1
102
RTVSPost2010Prop32
280
     0
102
RTVSPost2010PropOp32
 70
     1
102
RTVSPost2010Prop33
280
     0
102
RTVSPost2010PropOp33
 70
     1
102
RTVSPost2010Prop34
280
     0
102
RTVSPost2010PropOp34
 70
     1
102
RTVSPost2010Prop35
280
     0
102
RTVSPost2010PropOp35
 70
     1
102
RTVSPost2010Prop36
280
     0
102
RTVSPost2010PropOp36
 70
     1
102
RTVSPost2010Prop37
 90
       50
102
RTVSPost2010PropOp37
 70
     1
102
RTVSPost2010Prop38
140
0.0
102
RTVSPost2010PropOp38
 70
     1
102
RTVSPost2010Prop39
140
1.0
102
RTVSPost2010PropOp39
 70
     1
102
RTVSPost2010Prop40
 90
        0
102
RTVSPost2010PropOp40
 70
     1
102
RTVSPost2010Prop41ColorIndex
 90
       18
102
RTVSPost2010Prop41ColorRGB
 90
        0
102
RTVSPost2010PropOp41
 70
     1
102
RTVSPost2010Prop42
 90
       50
102
RTVSPost2010PropOp42
 70
     1
102
RTVSPost2010Prop43
 90
        3
102
RTVSPost2010PropOp43
 70
     1
102
RTVSPost2010Prop44ColorIndex
 90
        5
102
RTVSPost2010Prop44ColorRGB
 90
      255
102
RTVSPost2010PropOp44
 70
     1
102
RTVSPost2010Prop45
280
     0
102
RTVSPost2010PropOp45
 70
     1
102
RTVSPost2010Prop46
 90
       50
102
RTVSPost2010PropOp46
 70
     1
102
RTVSPost2010Prop47
 90
       50
102
RTVSPost2010PropOp47
 70
     1
102
RTVSPost2010Prop48
 90
       50
102
RTVSPost2010PropOp48
 70
     1
102
RTVSPost2010Prop49
280
     0
102
RTVSPost2010PropOp49
 70
     1
102
RTVSPost2010Prop50
 90
       50
102
RTVSPost2010PropOp50
 70
     1
102
RTVSPost2010Prop51ColorIndex
 90
      256
102
RTVSPost2010Prop51ColorRGB
 90
-16777216
102
RTVSPost2010PropOp51
 70
     0
102
RTVSPost2010Prop52
140
1.0
102
RTVSPost2010PropOp52
 70
     0
102
RTVSPost2010Prop53
 90
        2
102
RTVSPost2010PropOp53
 70
     1
102
RTVSPost2010Prop54
  1
strokes_ogs.tif
102
RTVSPost2010PropOp54
 70
     1
102
RTVSPost2010Prop55
280
     0
102
RTVSPost2010PropOp55
 70
     1
102
RTVSPost2010Prop56
140
1.0
102
RTVSPost2010PropOp56
 70
     1
102
RTVSPost2010Prop57
140
1.0
102
RTVSPost2010PropOp57
 70
     1
  0
XRECORD
  5
71D
102
{ACAD_REACTORS
330
71C
102
}
330
71C
100
AcDbXrecord
280
     1
102
RTVSPropertyOp0
 70
     1
102
RTVSPropertyOp1
 70
     1
102
RTVSPropertyOp2
 70
     1
102
RTVSPropertyOp3
 70
     1
102
RTVSPropertyOp4
 70
     1
102
RTVSPropertyOp5
 70
     1
102
RTVSPropertyOp6
 70
     1
102
RTVSPropertyOp7
 70
     1
102
RTVSPropertyOp8
 70
     1
102
RTVSPropertyOp9
 70
     1
102
RTVSPropertyOp10
 70
     1
102
RTVSPropertyOp11
 70
     1
102
RTVSPropertyOp12
 70
     1
102
RTVSPropertyOp13
 70
     1
102
RTVSPropertyOp14
 70
     1
102
RTVSPropertyOp15
 70
     1
102
RTVSPropertyOp16
 70
     1
102
RTVSPropertyOp17
 70
     1
102
RTVSPropertyOp18
 70
     1
102
RTVSPropertyOp19
 70
     1
102
RTVSPropertyOp20
 70
     1
102
RTVSPropertyOp21
 70
     1
102
RTVSPropertyOp22
 70
     1
102
RTVSPropertyOp23
 70
     1
102
RTVSPropertyOp24
 70
     1
102
RTVSPropertyOp25
 70
     1
102
RTVSPropertyOp26
 70
     1
102
RTVSPropertyOp27
 70
     1
102
RTVSPropertyOp28
 70
     1
102
RTVSPropertyOp29
 70
     1
102
RTVSPropertyOp30
 70
     1
102
RTVSPropertyOp31
 70
     1
102
RTVSPropertyOp32
 70
     1
102
RTVSPropertyOp33
 70
     1
102
RTVSPropertyOp34
 70
     1
102
RTVSPropertyOp35
 70
     1
102
RTVSPropertyOp36
 70
     1
102
RTVSPropertyOp37
 70
     1
102
RTVSPropertyOp38
 70
     1
102
RTVSPropertyOp39
 70
     1
102
RTVSPropertyOp40
 70
     1
102
RTVSPropertyOp41
 70
     1
102
RTVSPropertyOp42
 70
     1
102
RTVSPropertyOp43
 70
     1
102
RTVSPropertyOp44
 70
     1
102
RTVSPropertyOp45
 70
     1
102
RTVSPropertyOp46
 70
     1
102
RTVSPropertyOp47
 70
     1
102
RTVSPropertyOp48
 70
     1
102
RTVSPropertyOp49
 70
     1
102
RTVSPropertyOp50
 70
     1
102
RTVSPropertyOp51
 70
     0
102
RTVSPropertyOp52
 70
     0
102
RTVSPropertyOp53
 70
     1
102
RTVSPropertyOp54
 70
     1
102
RTVSPropertyOp55
 70
     1
102
RTVSPropertyOp56
 70
     1
102
RTVSPropertyOp57
 70
     1
102
RTVSPost2010Prop28
280
     0
102
RTVSPost2010PropOp28
 70
     1
102
RTVSPost2010Prop29
280
     1
102
RTVSPost2010PropOp29
 70
     1
102
RTVSPost2010Prop30
280
     1
102
RTVSPost2010PropOp30
 70
     1
102
RTVSPost2010Prop31
280
     0
102
RTVSPost2010PropOp31
 70
     1
102
RTVSPost2010Prop32
280
     0
102
RTVSPost2010PropOp32
 70
     1
102
RTVSPost2010Prop33
280
     0
102
RTVSPost2010PropOp33
 70
     1
102
RTVSPost2010Prop34
280
     0
102
RTVSPost2010PropOp34
 70
     1
102
RTVSPost2010Prop35
280
     0
102
RTVSPost2010PropOp35
 70
     1
102
RTVSPost2010Prop36
280
     0
102
RTVSPost2010PropOp36
 70
     1
102
RTVSPost2010Prop37
 90
       50
102
RTVSPost2010PropOp37
 70
     1
102
RTVSPost2010Prop38
140
0.0
102
RTVSPost2010PropOp38
 70
     1
102
RTVSPost2010Prop39
140
1.0
102
RTVSPost2010PropOp39
 70
     1
102
RTVSPost2010Prop40
 90
        0
102
RTVSPost2010PropOp40
 70
     1
102
RTVSPost2010Prop41ColorIndex
 90
       18
102
RTVSPost2010Prop41ColorRGB
 90
        0
102
RTVSPost2010PropOp41
 70
     1
102
RTVSPost2010Prop42
 90
       50
102
RTVSPost2010PropOp42
 70
     1
102
RTVSPost2010Prop43
 90
        3
102
RTVSPost2010PropOp43
 70
     1
102
RTVSPost2010Prop44ColorIndex
 90
        5
102
RTVSPost2010Prop44ColorRGB
 90
      255
102
RTVSPost2010PropOp44
 70
     1
102
RTVSPost2010Prop45
280
     0
102
RTVSPost2010PropOp45
 70
     1
102
RTVSPost2010Prop46
 90
       50
102
RTVSPost2010PropOp46
 70
     1
102
RTVSPost2010Prop47
 90
       50
102
RTVSPost2010PropOp47
 70
     1
102
RTVSPost2010Prop48
 90
       50
102
RTVSPost2010PropOp48
 70
     1
102
RTVSPost2010Prop49
280
     0
102
RTVSPost2010PropOp49
 70
     1
102
RTVSPost2010Prop50
 90
       50
102
RTVSPost2010PropOp50
 70
     1
102
RTVSPost2010Prop51ColorIndex
 90
      256
102
RTVSPost2010Prop51ColorRGB
 90
-16777216
102
RTVSPost2010PropOp51
 70
     0
102
RTVSPost2010Prop52
140
1.0
102
RTVSPost2010PropOp52
 70
     0
102
RTVSPost2010Prop53
 90
        2
102
RTVSPost2010PropOp53
 70
     1
102
RTVSPost2010Prop54
  1
strokes_ogs.tif
102
RTVSPost2010PropOp54
 70
     1
102
RTVSPost2010Prop55
280
     0
102
RTVSPost2010PropOp55
 70
     1
102
RTVSPost2010Prop56
140
1.0
102
RTVSPost2010PropOp56
 70
     1
102
RTVSPost2010Prop57
140
1.0
102
RTVSPost2010PropOp57
 70
     1
  0
XRECORD
  5
733
102
{ACAD_REACTORS
330
732
102
}
330
732
100
AcDbXrecord
280
     1
102
RTVSPropertyOp0
 70
     1
102
RTVSPropertyOp1
 70
     1
102
RTVSPropertyOp2
 70
     1
102
RTVSPropertyOp3
 70
     1
102
RTVSPropertyOp4
 70
     1
102
RTVSPropertyOp5
 70
     1
102
RTVSPropertyOp6
 70
     1
102
RTVSPropertyOp7
 70
     1
102
RTVSPropertyOp8
 70
     1
102
RTVSPropertyOp9
 70
     1
102
RTVSPropertyOp10
 70
     1
102
RTVSPropertyOp11
 70
     1
102
RTVSPropertyOp12
 70
     1
102
RTVSPropertyOp13
 70
     1
102
RTVSPropertyOp14
 70
     1
102
RTVSPropertyOp15
 70
     1
102
RTVSPropertyOp16
 70
     1
102
RTVSPropertyOp17
 70
     1
102
RTVSPropertyOp18
 70
     1
102
RTVSPropertyOp19
 70
     1
102
RTVSPropertyOp20
 70
     1
102
RTVSPropertyOp21
 70
     1
102
RTVSPropertyOp22
 70
     1
102
RTVSPropertyOp23
 70
     1
102
RTVSPropertyOp24
 70
     1
102
RTVSPropertyOp25
 70
     1
102
RTVSPropertyOp26
 70
     1
102
RTVSPropertyOp27
 70
     1
102
RTVSPropertyOp28
 70
     1
102
RTVSPropertyOp29
 70
     1
102
RTVSPropertyOp30
 70
     1
102
RTVSPropertyOp31
 70
     1
102
RTVSPropertyOp32
 70
     1
102
RTVSPropertyOp33
 70
     1
102
RTVSPropertyOp34
 70
     1
102
RTVSPropertyOp35
 70
     1
102
RTVSPropertyOp36
 70
     1
102
RTVSPropertyOp37
 70
     1
102
RTVSPropertyOp38
 70
     1
102
RTVSPropertyOp39
 70
     1
102
RTVSPropertyOp40
 70
     1
102
RTVSPropertyOp41
 70
     1
102
RTVSPropertyOp42
 70
     1
102
RTVSPropertyOp43
 70
     1
102
RTVSPropertyOp44
 70
     1
102
RTVSPropertyOp45
 70
     1
102
RTVSPropertyOp46
 70
     1
102
RTVSPropertyOp47
 70
     1
102
RTVSPropertyOp48
 70
     1
102
RTVSPropertyOp49
 70
     1
102
RTVSPropertyOp50
 70
     1
102
RTVSPropertyOp51
 70
     0
102
RTVSPropertyOp52
 70
     0
102
RTVSPropertyOp53
 70
     1
102
RTVSPropertyOp54
 70
     1
102
RTVSPropertyOp55
 70
     1
102
RTVSPropertyOp56
 70
     1
102
RTVSPropertyOp57
 70
     1
102
RTVSPost2010Prop28
280
     0
102
RTVSPost2010PropOp28
 70
     1
102
RTVSPost2010Prop29
280
     1
102
RTVSPost2010PropOp29
 70
     1
102
RTVSPost2010Prop30
280
     1
102
RTVSPost2010PropOp30
 70
     1
102
RTVSPost2010Prop31
280
     0
102
RTVSPost2010PropOp31
 70
     1
102
RTVSPost2010Prop32
280
     0
102
RTVSPost2010PropOp32
 70
     1
102
RTVSPost2010Prop33
280
     0
102
RTVSPost2010PropOp33
 70
     1
102
RTVSPost2010Prop34
280
     0
102
RTVSPost2010PropOp34
 70
     1
102
RTVSPost2010Prop35
280
     0
102
RTVSPost2010PropOp35
 70
     1
102
RTVSPost2010Prop36
280
     0
102
RTVSPost2010PropOp36
 70
     1
102
RTVSPost2010Prop37
 90
       50
102
RTVSPost2010PropOp37
 70
     1
102
RTVSPost2010Prop38
140
0.0
102
RTVSPost2010PropOp38
 70
     1
102
RTVSPost2010Prop39
140
1.0
102
RTVSPost2010PropOp39
 70
     1
102
RTVSPost2010Prop40
 90
        0
102
RTVSPost2010PropOp40
 70
     1
102
RTVSPost2010Prop41ColorIndex
 90
       18
102
RTVSPost2010Prop41ColorRGB
 90
        0
102
RTVSPost2010PropOp41
 70
     1
102
RTVSPost2010Prop42
 90
       50
102
RTVSPost2010PropOp42
 70
     1
102
RTVSPost2010Prop43
 90
        3
102
RTVSPost2010PropOp43
 70
     1
102
RTVSPost2010Prop44ColorIndex
 90
        5
102
RTVSPost2010Prop44ColorRGB
 90
      255
102
RTVSPost2010PropOp44
 70
     1
102
RTVSPost2010Prop45
280
     0
102
RTVSPost2010PropOp45
 70
     1
102
RTVSPost2010Prop46
 90
       50
102
RTVSPost2010PropOp46
 70
     1
102
RTVSPost2010Prop47
 90
       50
102
RTVSPost2010PropOp47
 70
     1
102
RTVSPost2010Prop48
 90
       50
102
RTVSPost2010PropOp48
 70
     1
102
RTVSPost2010Prop49
280
     0
102
RTVSPost2010PropOp49
 70
     1
102
RTVSPost2010Prop50
 90
       50
102
RTVSPost2010PropOp50
 70
     1
102
RTVSPost2010Prop51ColorIndex
 90
      256
102
RTVSPost2010Prop51ColorRGB
 90
-16777216
102
RTVSPost2010PropOp51
 70
     0
102
RTVSPost2010Prop52
140
1.0
102
RTVSPost2010PropOp52
 70
     0
102
RTVSPost2010Prop53
 90
        2
102
RTVSPost2010PropOp53
 70
     1
102
RTVSPost2010Prop54
  1
strokes_ogs.tif
102
RTVSPost2010PropOp54
 70
     1
102
RTVSPost2010Prop55
280
     0
102
RTVSPost2010PropOp55
 70
     1
102
RTVSPost2010Prop56
140
1.0
102
RTVSPost2010PropOp56
 70
     1
102
RTVSPost2010Prop57
140
1.0
102
RTVSPost2010PropOp57
 70
     1
  0
XRECORD
  5
725
102
{ACAD_REACTORS
330
724
102
}
330
724
100
AcDbXrecord
280
     1
102
RTVSPropertyOp0
 70
     1
102
RTVSPropertyOp1
 70
     1
102
RTVSPropertyOp2
 70
     1
102
RTVSPropertyOp3
 70
     1
102
RTVSPropertyOp4
 70
     1
102
RTVSPropertyOp5
 70
     1
102
RTVSPropertyOp6
 70
     1
102
RTVSPropertyOp7
 70
     1
102
RTVSPropertyOp8
 70
     1
102
RTVSPropertyOp9
 70
     1
102
RTVSPropertyOp10
 70
     1
102
RTVSPropertyOp11
 70
     1
102
RTVSPropertyOp12
 70
     1
102
RTVSPropertyOp13
 70
     1
102
RTVSPropertyOp14
 70
     1
102
RTVSPropertyOp15
 70
     1
102
RTVSPropertyOp16
 70
     1
102
RTVSPropertyOp17
 70
     1
102
RTVSPropertyOp18
 70
     1
102
RTVSPropertyOp19
 70
     1
102
RTVSPropertyOp20
 70
     1
102
RTVSPropertyOp21
 70
     1
102
RTVSPropertyOp22
 70
     1
102
RTVSPropertyOp23
 70
     1
102
RTVSPropertyOp24
 70
     1
102
RTVSPropertyOp25
 70
     1
102
RTVSPropertyOp26
 70
     1
102
RTVSPropertyOp27
 70
     1
102
RTVSPropertyOp28
 70
     1
102
RTVSPropertyOp29
 70
     1
102
RTVSPropertyOp30
 70
     1
102
RTVSPropertyOp31
 70
     1
102
RTVSPropertyOp32
 70
     1
102
RTVSPropertyOp33
 70
     1
102
RTVSPropertyOp34
 70
     1
102
RTVSPropertyOp35
 70
     1
102
RTVSPropertyOp36
 70
     1
102
RTVSPropertyOp37
 70
     1
102
RTVSPropertyOp38
 70
     1
102
RTVSPropertyOp39
 70
     1
102
RTVSPropertyOp40
 70
     1
102
RTVSPropertyOp41
 70
     1
102
RTVSPropertyOp42
 70
     1
102
RTVSPropertyOp43
 70
     1
102
RTVSPropertyOp44
 70
     1
102
RTVSPropertyOp45
 70
     1
102
RTVSPropertyOp46
 70
     1
102
RTVSPropertyOp47
 70
     1
102
RTVSPropertyOp48
 70
     1
102
RTVSPropertyOp49
 70
     1
102
RTVSPropertyOp50
 70
     1
102
RTVSPropertyOp51
 70
     0
102
RTVSPropertyOp52
 70
     0
102
RTVSPropertyOp53
 70
     1
102
RTVSPropertyOp54
 70
     1
102
RTVSPropertyOp55
 70
     1
102
RTVSPropertyOp56
 70
     1
102
RTVSPropertyOp57
 70
     1
102
RTVSPost2010Prop28
280
     0
102
RTVSPost2010PropOp28
 70
     1
102
RTVSPost2010Prop29
280
     1
102
RTVSPost2010PropOp29
 70
     1
102
RTVSPost2010Prop30
280
     1
102
RTVSPost2010PropOp30
 70
     1
102
RTVSPost2010Prop31
280
     0
102
RTVSPost2010PropOp31
 70
     1
102
RTVSPost2010Prop32
280
     0
102
RTVSPost2010PropOp32
 70
     1
102
RTVSPost2010Prop33
280
     0
102
RTVSPost2010PropOp33
 70
     1
102
RTVSPost2010Prop34
280
     0
102
RTVSPost2010PropOp34
 70
     1
102
RTVSPost2010Prop35
280
     0
102
RTVSPost2010PropOp35
 70
     1
102
RTVSPost2010Prop36
280
     0
102
RTVSPost2010PropOp36
 70
     1
102
RTVSPost2010Prop37
 90
       50
102
RTVSPost2010PropOp37
 70
     1
102
RTVSPost2010Prop38
140
0.0
102
RTVSPost2010PropOp38
 70
     1
102
RTVSPost2010Prop39
140
1.0
102
RTVSPost2010PropOp39
 70
     1
102
RTVSPost2010Prop40
 90
        0
102
RTVSPost2010PropOp40
 70
     1
102
RTVSPost2010Prop41ColorIndex
 90
       18
102
RTVSPost2010Prop41ColorRGB
 90
        0
102
RTVSPost2010PropOp41
 70
     1
102
RTVSPost2010Prop42
 90
       50
102
RTVSPost2010PropOp42
 70
     1
102
RTVSPost2010Prop43
 90
        3
102
RTVSPost2010PropOp43
 70
     1
102
RTVSPost2010Prop44ColorIndex
 90
        5
102
RTVSPost2010Prop44ColorRGB
 90
      255
102
RTVSPost2010PropOp44
 70
     1
102
RTVSPost2010Prop45
280
     0
102
RTVSPost2010PropOp45
 70
     1
102
RTVSPost2010Prop46
 90
       50
102
RTVSPost2010PropOp46
 70
     1
102
RTVSPost2010Prop47
 90
       50
102
RTVSPost2010PropOp47
 70
     1
102
RTVSPost2010Prop48
 90
       50
102
RTVSPost2010PropOp48
 70
     1
102
RTVSPost2010Prop49
280
     0
102
RTVSPost2010PropOp49
 70
     1
102
RTVSPost2010Prop50
 90
       50
102
RTVSPost2010PropOp50
 70
     1
102
RTVSPost2010Prop51ColorIndex
 90
      256
102
RTVSPost2010Prop51ColorRGB
 90
-16777216
102
RTVSPost2010PropOp51
 70
     0
102
RTVSPost2010Prop52
140
1.0
102
RTVSPost2010PropOp52
 70
     0
102
RTVSPost2010Prop53
 90
        2
102
RTVSPost2010PropOp53
 70
     1
102
RTVSPost2010Prop54
  1
strokes_ogs.tif
102
RTVSPost2010PropOp54
 70
     1
102
RTVSPost2010Prop55
280
     0
102
RTVSPost2010PropOp55
 70
     1
102
RTVSPost2010Prop56
140
1.0
102
RTVSPost2010PropOp56
 70
     1
102
RTVSPost2010Prop57
140
1.0
102
RTVSPost2010PropOp57
 70
     1
  0
XRECORD
  5
713
102
{ACAD_REACTORS
330
712
102
}
330
712
100
AcDbXrecord
280
     1
102
RTVSPropertyOp0
 70
     1
102
RTVSPropertyOp1
 70
     1
102
RTVSPropertyOp2
 70
     1
102
RTVSPropertyOp3
 70
     1
102
RTVSPropertyOp4
 70
     1
102
RTVSPropertyOp5
 70
     1
102
RTVSPropertyOp6
 70
     1
102
RTVSPropertyOp7
 70
     1
102
RTVSPropertyOp8
 70
     1
102
RTVSPropertyOp9
 70
     1
102
RTVSPropertyOp10
 70
     1
102
RTVSPropertyOp11
 70
     1
102
RTVSPropertyOp12
 70
     1
102
RTVSPropertyOp13
 70
     1
102
RTVSPropertyOp14
 70
     1
102
RTVSPropertyOp15
 70
     1
102
RTVSPropertyOp16
 70
     1
102
RTVSPropertyOp17
 70
     1
102
RTVSPropertyOp18
 70
     1
102
RTVSPropertyOp19
 70
     1
102
RTVSPropertyOp20
 70
     1
102
RTVSPropertyOp21
 70
     1
102
RTVSPropertyOp22
 70
     1
102
RTVSPropertyOp23
 70
     1
102
RTVSPropertyOp24
 70
     1
102
RTVSPropertyOp25
 70
     1
102
RTVSPropertyOp26
 70
     1
102
RTVSPropertyOp27
 70
     1
102
RTVSPropertyOp28
 70
     1
102
RTVSPropertyOp29
 70
     1
102
RTVSPropertyOp30
 70
     1
102
RTVSPropertyOp31
 70
     1
102
RTVSPropertyOp32
 70
     1
102
RTVSPropertyOp33
 70
     1
102
RTVSPropertyOp34
 70
     1
102
RTVSPropertyOp35
 70
     1
102
RTVSPropertyOp36
 70
     1
102
RTVSPropertyOp37
 70
     1
102
RTVSPropertyOp38
 70
     1
102
RTVSPropertyOp39
 70
     1
102
RTVSPropertyOp40
 70
     1
102
RTVSPropertyOp41
 70
     1
102
RTVSPropertyOp42
 70
     1
102
RTVSPropertyOp43
 70
     1
102
RTVSPropertyOp44
 70
     1
102
RTVSPropertyOp45
 70
     1
102
RTVSPropertyOp46
 70
     1
102
RTVSPropertyOp47
 70
     1
102
RTVSPropertyOp48
 70
     1
102
RTVSPropertyOp49
 70
     1
102
RTVSPropertyOp50
 70
     1
102
RTVSPropertyOp51
 70
     0
102
RTVSPropertyOp52
 70
     0
102
RTVSPropertyOp53
 70
     1
102
RTVSPropertyOp54
 70
     1
102
RTVSPropertyOp55
 70
     1
102
RTVSPropertyOp56
 70
     1
102
RTVSPropertyOp57
 70
     1
102
RTVSPost2010Prop28
280
     0
102
RTVSPost2010PropOp28
 70
     1
102
RTVSPost2010Prop29
280
     1
102
RTVSPost2010PropOp29
 70
     1
102
RTVSPost2010Prop30
280
     1
102
RTVSPost2010PropOp30
 70
     1
102
RTVSPost2010Prop31
280
     0
102
RTVSPost2010PropOp31
 70
     1
102
RTVSPost2010Prop32
280
     0
102
RTVSPost2010PropOp32
 70
     1
102
RTVSPost2010Prop33
280
     0
102
RTVSPost2010PropOp33
 70
     1
102
RTVSPost2010Prop34
280
     0
102
RTVSPost2010PropOp34
 70
     1
102
RTVSPost2010Prop35
280
     0
102
RTVSPost2010PropOp35
 70
     1
102
RTVSPost2010Prop36
280
     0
102
RTVSPost2010PropOp36
 70
     1
102
RTVSPost2010Prop37
 90
       50
102
RTVSPost2010PropOp37
 70
     1
102
RTVSPost2010Prop38
140
0.0
102
RTVSPost2010PropOp38
 70
     1
102
RTVSPost2010Prop39
140
1.0
102
RTVSPost2010PropOp39
 70
     1
102
RTVSPost2010Prop40
 90
        0
102
RTVSPost2010PropOp40
 70
     1
102
RTVSPost2010Prop41ColorIndex
 90
       18
102
RTVSPost2010Prop41ColorRGB
 90
        0
102
RTVSPost2010PropOp41
 70
     1
102
RTVSPost2010Prop42
 90
       50
102
RTVSPost2010PropOp42
 70
     1
102
RTVSPost2010Prop43
 90
        3
102
RTVSPost2010PropOp43
 70
     1
102
RTVSPost2010Prop44ColorIndex
 90
        5
102
RTVSPost2010Prop44ColorRGB
 90
      255
102
RTVSPost2010PropOp44
 70
     1
102
RTVSPost2010Prop45
280
     0
102
RTVSPost2010PropOp45
 70
     1
102
RTVSPost2010Prop46
 90
       50
102
RTVSPost2010PropOp46
 70
     1
102
RTVSPost2010Prop47
 90
       50
102
RTVSPost2010PropOp47
 70
     1
102
RTVSPost2010Prop48
 90
       50
102
RTVSPost2010PropOp48
 70
     1
102
RTVSPost2010Prop49
280
     0
102
RTVSPost2010PropOp49
 70
     1
102
RTVSPost2010Prop50
 90
       50
102
RTVSPost2010PropOp50
 70
     1
102
RTVSPost2010Prop51ColorIndex
 90
      256
102
RTVSPost2010Prop51ColorRGB
 90
-16777216
102
RTVSPost2010PropOp51
 70
     0
102
RTVSPost2010Prop52
140
1.0
102
RTVSPost2010PropOp52
 70
     0
102
RTVSPost2010Prop53
 90
        2
102
RTVSPost2010PropOp53
 70
     1
102
RTVSPost2010Prop54
  1
strokes_ogs.tif
102
RTVSPost2010PropOp54
 70
     1
102
RTVSPost2010Prop55
280
     0
102
RTVSPost2010PropOp55
 70
     1
102
RTVSPost2010Prop56
140
1.0
102
RTVSPost2010PropOp56
 70
     1
102
RTVSPost2010Prop57
140
1.0
102
RTVSPost2010PropOp57
 70
     1
  0
XRECORD
  5
731
102
{ACAD_REACTORS
330
730
102
}
330
730
100
AcDbXrecord
280
     1
102
RTVSPropertyOp0
 70
     1
102
RTVSPropertyOp1
 70
     1
102
RTVSPropertyOp2
 70
     1
102
RTVSPropertyOp3
 70
     1
102
RTVSPropertyOp4
 70
     1
102
RTVSPropertyOp5
 70
     1
102
RTVSPropertyOp6
 70
     1
102
RTVSPropertyOp7
 70
     1
102
RTVSPropertyOp8
 70
     1
102
RTVSPropertyOp9
 70
     1
102
RTVSPropertyOp10
 70
     1
102
RTVSPropertyOp11
 70
     1
102
RTVSPropertyOp12
 70
     1
102
RTVSPropertyOp13
 70
     1
102
RTVSPropertyOp14
 70
     1
102
RTVSPropertyOp15
 70
     1
102
RTVSPropertyOp16
 70
     1
102
RTVSPropertyOp17
 70
     1
102
RTVSPropertyOp18
 70
     1
102
RTVSPropertyOp19
 70
     1
102
RTVSPropertyOp20
 70
     1
102
RTVSPropertyOp21
 70
     1
102
RTVSPropertyOp22
 70
     1
102
RTVSPropertyOp23
 70
     1
102
RTVSPropertyOp24
 70
     1
102
RTVSPropertyOp25
 70
     1
102
RTVSPropertyOp26
 70
     1
102
RTVSPropertyOp27
 70
     1
102
RTVSPropertyOp28
 70
     1
102
RTVSPropertyOp29
 70
     1
102
RTVSPropertyOp30
 70
     1
102
RTVSPropertyOp31
 70
     1
102
RTVSPropertyOp32
 70
     1
102
RTVSPropertyOp33
 70
     1
102
RTVSPropertyOp34
 70
     1
102
RTVSPropertyOp35
 70
     1
102
RTVSPropertyOp36
 70
     1
102
RTVSPropertyOp37
 70
     1
102
RTVSPropertyOp38
 70
     1
102
RTVSPropertyOp39
 70
     1
102
RTVSPropertyOp40
 70
     1
102
RTVSPropertyOp41
 70
     1
102
RTVSPropertyOp42
 70
     1
102
RTVSPropertyOp43
 70
     1
102
RTVSPropertyOp44
 70
     1
102
RTVSPropertyOp45
 70
     1
102
RTVSPropertyOp46
 70
     1
102
RTVSPropertyOp47
 70
     1
102
RTVSPropertyOp48
 70
     1
102
RTVSPropertyOp49
 70
     1
102
RTVSPropertyOp50
 70
     1
102
RTVSPropertyOp51
 70
     0
102
RTVSPropertyOp52
 70
     0
102
RTVSPropertyOp53
 70
     1
102
RTVSPropertyOp54
 70
     1
102
RTVSPropertyOp55
 70
     1
102
RTVSPropertyOp56
 70
     1
102
RTVSPropertyOp57
 70
     1
102
RTVSPost2010Prop28
280
     0
102
RTVSPost2010PropOp28
 70
     1
102
RTVSPost2010Prop29
280
     1
102
RTVSPost2010PropOp29
 70
     1
102
RTVSPost2010Prop30
280
     1
102
RTVSPost2010PropOp30
 70
     1
102
RTVSPost2010Prop31
280
     0
102
RTVSPost2010PropOp31
 70
     1
102
RTVSPost2010Prop32
280
     0
102
RTVSPost2010PropOp32
 70
     1
102
RTVSPost2010Prop33
280
     0
102
RTVSPost2010PropOp33
 70
     1
102
RTVSPost2010Prop34
280
     0
102
RTVSPost2010PropOp34
 70
     1
102
RTVSPost2010Prop35
280
     0
102
RTVSPost2010PropOp35
 70
     1
102
RTVSPost2010Prop36
280
     0
102
RTVSPost2010PropOp36
 70
     1
102
RTVSPost2010Prop37
 90
       50
102
RTVSPost2010PropOp37
 70
     1
102
RTVSPost2010Prop38
140
0.0
102
RTVSPost2010PropOp38
 70
     1
102
RTVSPost2010Prop39
140
1.0
102
RTVSPost2010PropOp39
 70
     1
102
RTVSPost2010Prop40
 90
        0
102
RTVSPost2010PropOp40
 70
     1
102
RTVSPost2010Prop41ColorIndex
 90
       18
102
RTVSPost2010Prop41ColorRGB
 90
        0
102
RTVSPost2010PropOp41
 70
     1
102
RTVSPost2010Prop42
 90
       50
102
RTVSPost2010PropOp42
 70
     1
102
RTVSPost2010Prop43
 90
        3
102
RTVSPost2010PropOp43
 70
     1
102
RTVSPost2010Prop44ColorIndex
 90
        5
102
RTVSPost2010Prop44ColorRGB
 90
      255
102
RTVSPost2010PropOp44
 70
     1
102
RTVSPost2010Prop45
280
     0
102
RTVSPost2010PropOp45
 70
     1
102
RTVSPost2010Prop46
 90
       50
102
RTVSPost2010PropOp46
 70
     1
102
RTVSPost2010Prop47
 90
       50
102
RTVSPost2010PropOp47
 70
     1
102
RTVSPost2010Prop48
 90
       50
102
RTVSPost2010PropOp48
 70
     1
102
RTVSPost2010Prop49
280
     0
102
RTVSPost2010PropOp49
 70
     1
102
RTVSPost2010Prop50
 90
       50
102
RTVSPost2010PropOp50
 70
     1
102
RTVSPost2010Prop51ColorIndex
 90
      256
102
RTVSPost2010Prop51ColorRGB
 90
-16777216
102
RTVSPost2010PropOp51
 70
     0
102
RTVSPost2010Prop52
140
1.0
102
RTVSPost2010PropOp52
 70
     0
102
RTVSPost2010Prop53
 90
        2
102
RTVSPost2010PropOp53
 70
     1
102
RTVSPost2010Prop54
  1
strokes_ogs.tif
102
RTVSPost2010PropOp54
 70
     1
102
RTVSPost2010Prop55
280
     0
102
RTVSPost2010PropOp55
 70
     1
102
RTVSPost2010Prop56
140
1.0
102
RTVSPost2010PropOp56
 70
     1
102
RTVSPost2010Prop57
140
1.0
102
RTVSPost2010PropOp57
 70
     1
  0
XRECORD
  5
72F
102
{ACAD_REACTORS
330
72E
102
}
330
72E
100
AcDbXrecord
280
     1
102
RTVSPropertyOp0
 70
     1
102
RTVSPropertyOp1
 70
     1
102
RTVSPropertyOp2
 70
     1
102
RTVSPropertyOp3
 70
     1
102
RTVSPropertyOp4
 70
     1
102
RTVSPropertyOp5
 70
     1
102
RTVSPropertyOp6
 70
     1
102
RTVSPropertyOp7
 70
     1
102
RTVSPropertyOp8
 70
     1
102
RTVSPropertyOp9
 70
     1
102
RTVSPropertyOp10
 70
     1
102
RTVSPropertyOp11
 70
     1
102
RTVSPropertyOp12
 70
     1
102
RTVSPropertyOp13
 70
     1
102
RTVSPropertyOp14
 70
     1
102
RTVSPropertyOp15
 70
     1
102
RTVSPropertyOp16
 70
     1
102
RTVSPropertyOp17
 70
     1
102
RTVSPropertyOp18
 70
     1
102
RTVSPropertyOp19
 70
     1
102
RTVSPropertyOp20
 70
     1
102
RTVSPropertyOp21
 70
     1
102
RTVSPropertyOp22
 70
     1
102
RTVSPropertyOp23
 70
     1
102
RTVSPropertyOp24
 70
     1
102
RTVSPropertyOp25
 70
     1
102
RTVSPropertyOp26
 70
     1
102
RTVSPropertyOp27
 70
     1
102
RTVSPropertyOp28
 70
     1
102
RTVSPropertyOp29
 70
     1
102
RTVSPropertyOp30
 70
     1
102
RTVSPropertyOp31
 70
     1
102
RTVSPropertyOp32
 70
     1
102
RTVSPropertyOp33
 70
     1
102
RTVSPropertyOp34
 70
     1
102
RTVSPropertyOp35
 70
     1
102
RTVSPropertyOp36
 70
     1
102
RTVSPropertyOp37
 70
     1
102
RTVSPropertyOp38
 70
     1
102
RTVSPropertyOp39
 70
     1
102
RTVSPropertyOp40
 70
     1
102
RTVSPropertyOp41
 70
     1
102
RTVSPropertyOp42
 70
     1
102
RTVSPropertyOp43
 70
     1
102
RTVSPropertyOp44
 70
     1
102
RTVSPropertyOp45
 70
     1
102
RTVSPropertyOp46
 70
     1
102
RTVSPropertyOp47
 70
     1
102
RTVSPropertyOp48
 70
     1
102
RTVSPropertyOp49
 70
     1
102
RTVSPropertyOp50
 70
     1
102
RTVSPropertyOp51
 70
     0
102
RTVSPropertyOp52
 70
     0
102
RTVSPropertyOp53
 70
     1
102
RTVSPropertyOp54
 70
     1
102
RTVSPropertyOp55
 70
     1
102
RTVSPropertyOp56
 70
     1
102
RTVSPropertyOp57
 70
     1
102
RTVSPost2010Prop28
280
     0
102
RTVSPost2010PropOp28
 70
     1
102
RTVSPost2010Prop29
280
     1
102
RTVSPost2010PropOp29
 70
     1
102
RTVSPost2010Prop30
280
     1
102
RTVSPost2010PropOp30
 70
     1
102
RTVSPost2010Prop31
280
     0
102
RTVSPost2010PropOp31
 70
     1
102
RTVSPost2010Prop32
280
     0
102
RTVSPost2010PropOp32
 70
     1
102
RTVSPost2010Prop33
280
     0
102
RTVSPost2010PropOp33
 70
     1
102
RTVSPost2010Prop34
280
     0
102
RTVSPost2010PropOp34
 70
     1
102
RTVSPost2010Prop35
280
     0
102
RTVSPost2010PropOp35
 70
     1
102
RTVSPost2010Prop36
280
     0
102
RTVSPost2010PropOp36
 70
     1
102
RTVSPost2010Prop37
 90
       50
102
RTVSPost2010PropOp37
 70
     1
102
RTVSPost2010Prop38
140
0.0
102
RTVSPost2010PropOp38
 70
     1
102
RTVSPost2010Prop39
140
1.0
102
RTVSPost2010PropOp39
 70
     1
102
RTVSPost2010Prop40
 90
        0
102
RTVSPost2010PropOp40
 70
     1
102
RTVSPost2010Prop41ColorIndex
 90
       18
102
RTVSPost2010Prop41ColorRGB
 90
        0
102
RTVSPost2010PropOp41
 70
     1
102
RTVSPost2010Prop42
 90
       50
102
RTVSPost2010PropOp42
 70
     1
102
RTVSPost2010Prop43
 90
        3
102
RTVSPost2010PropOp43
 70
     1
102
RTVSPost2010Prop44ColorIndex
 90
        5
102
RTVSPost2010Prop44ColorRGB
 90
      255
102
RTVSPost2010PropOp44
 70
     1
102
RTVSPost2010Prop45
280
     0
102
RTVSPost2010PropOp45
 70
     1
102
RTVSPost2010Prop46
 90
       50
102
RTVSPost2010PropOp46
 70
     1
102
RTVSPost2010Prop47
 90
       50
102
RTVSPost2010PropOp47
 70
     1
102
RTVSPost2010Prop48
 90
       50
102
RTVSPost2010PropOp48
 70
     1
102
RTVSPost2010Prop49
280
     0
102
RTVSPost2010PropOp49
 70
     1
102
RTVSPost2010Prop50
 90
       50
102
RTVSPost2010PropOp50
 70
     1
102
RTVSPost2010Prop51ColorIndex
 90
      256
102
RTVSPost2010Prop51ColorRGB
 90
-16777216
102
RTVSPost2010PropOp51
 70
     0
102
RTVSPost2010Prop52
140
1.0
102
RTVSPost2010PropOp52
 70
     0
102
RTVSPost2010Prop53
 90
        2
102
RTVSPost2010PropOp53
 70
     1
102
RTVSPost2010Prop54
  1
strokes_ogs.tif
102
RTVSPost2010PropOp54
 70
     1
102
RTVSPost2010Prop55
280
     0
102
RTVSPost2010PropOp55
 70
     1
102
RTVSPost2010Prop56
140
1.0
102
RTVSPost2010PropOp56
 70
     1
102
RTVSPost2010Prop57
140
1.0
102
RTVSPost2010PropOp57
 70
     1
  0
XRECORD
  5
729
102
{ACAD_REACTORS
330
728
102
}
330
728
100
AcDbXrecord
280
     1
102
RTVSPropertyOp0
 70
     1
102
RTVSPropertyOp1
 70
     1
102
RTVSPropertyOp2
 70
     1
102
RTVSPropertyOp3
 70
     1
102
RTVSPropertyOp4
 70
     1
102
RTVSPropertyOp5
 70
     1
102
RTVSPropertyOp6
 70
     1
102
RTVSPropertyOp7
 70
     1
102
RTVSPropertyOp8
 70
     1
102
RTVSPropertyOp9
 70
     1
102
RTVSPropertyOp10
 70
     1
102
RTVSPropertyOp11
 70
     1
102
RTVSPropertyOp12
 70
     1
102
RTVSPropertyOp13
 70
     1
102
RTVSPropertyOp14
 70
     1
102
RTVSPropertyOp15
 70
     1
102
RTVSPropertyOp16
 70
     1
102
RTVSPropertyOp17
 70
     1
102
RTVSPropertyOp18
 70
     1
102
RTVSPropertyOp19
 70
     1
102
RTVSPropertyOp20
 70
     1
102
RTVSPropertyOp21
 70
     1
102
RTVSPropertyOp22
 70
     1
102
RTVSPropertyOp23
 70
     1
102
RTVSPropertyOp24
 70
     1
102
RTVSPropertyOp25
 70
     1
102
RTVSPropertyOp26
 70
     1
102
RTVSPropertyOp27
 70
     1
102
RTVSPropertyOp28
 70
     1
102
RTVSPropertyOp29
 70
     1
102
RTVSPropertyOp30
 70
     1
102
RTVSPropertyOp31
 70
     1
102
RTVSPropertyOp32
 70
     1
102
RTVSPropertyOp33
 70
     1
102
RTVSPropertyOp34
 70
     1
102
RTVSPropertyOp35
 70
     1
102
RTVSPropertyOp36
 70
     1
102
RTVSPropertyOp37
 70
     1
102
RTVSPropertyOp38
 70
     1
102
RTVSPropertyOp39
 70
     1
102
RTVSPropertyOp40
 70
     1
102
RTVSPropertyOp41
 70
     1
102
RTVSPropertyOp42
 70
     1
102
RTVSPropertyOp43
 70
     1
102
RTVSPropertyOp44
 70
     1
102
RTVSPropertyOp45
 70
     1
102
RTVSPropertyOp46
 70
     1
102
RTVSPropertyOp47
 70
     1
102
RTVSPropertyOp48
 70
     1
102
RTVSPropertyOp49
 70
     1
102
RTVSPropertyOp50
 70
     1
102
RTVSPropertyOp51
 70
     0
102
RTVSPropertyOp52
 70
     0
102
RTVSPropertyOp53
 70
     1
102
RTVSPropertyOp54
 70
     1
102
RTVSPropertyOp55
 70
     1
102
RTVSPropertyOp56
 70
     1
102
RTVSPropertyOp57
 70
     1
102
RTVSPost2010Prop28
280
     0
102
RTVSPost2010PropOp28
 70
     1
102
RTVSPost2010Prop29
280
     1
102
RTVSPost2010PropOp29
 70
     1
102
RTVSPost2010Prop30
280
     1
102
RTVSPost2010PropOp30
 70
     1
102
RTVSPost2010Prop31
280
     0
102
RTVSPost2010PropOp31
 70
     1
102
RTVSPost2010Prop32
280
     0
102
RTVSPost2010PropOp32
 70
     1
102
RTVSPost2010Prop33
280
     0
102
RTVSPost2010PropOp33
 70
     1
102
RTVSPost2010Prop34
280
     0
102
RTVSPost2010PropOp34
 70
     1
102
RTVSPost2010Prop35
280
     0
102
RTVSPost2010PropOp35
 70
     1
102
RTVSPost2010Prop36
280
     0
102
RTVSPost2010PropOp36
 70
     1
102
RTVSPost2010Prop37
 90
       50
102
RTVSPost2010PropOp37
 70
     1
102
RTVSPost2010Prop38
140
0.0
102
RTVSPost2010PropOp38
 70
     1
102
RTVSPost2010Prop39
140
1.0
102
RTVSPost2010PropOp39
 70
     1
102
RTVSPost2010Prop40
 90
        0
102
RTVSPost2010PropOp40
 70
     1
102
RTVSPost2010Prop41ColorIndex
 90
       18
102
RTVSPost2010Prop41ColorRGB
 90
        0
102
RTVSPost2010PropOp41
 70
     1
102
RTVSPost2010Prop42
 90
       50
102
RTVSPost2010PropOp42
 70
     1
102
RTVSPost2010Prop43
 90
        3
102
RTVSPost2010PropOp43
 70
     1
102
RTVSPost2010Prop44ColorIndex
 90
        5
102
RTVSPost2010Prop44ColorRGB
 90
      255
102
RTVSPost2010PropOp44
 70
     1
102
RTVSPost2010Prop45
280
     0
102
RTVSPost2010PropOp45
 70
     1
102
RTVSPost2010Prop46
 90
       50
102
RTVSPost2010PropOp46
 70
     1
102
RTVSPost2010Prop47
 90
       50
102
RTVSPost2010PropOp47
 70
     1
102
RTVSPost2010Prop48
 90
       50
102
RTVSPost2010PropOp48
 70
     1
102
RTVSPost2010Prop49
280
     0
102
RTVSPost2010PropOp49
 70
     1
102
RTVSPost2010Prop50
 90
       50
102
RTVSPost2010PropOp50
 70
     1
102
RTVSPost2010Prop51ColorIndex
 90
      256
102
RTVSPost2010Prop51ColorRGB
 90
-16777216
102
RTVSPost2010PropOp51
 70
     0
102
RTVSPost2010Prop52
140
1.0
102
RTVSPost2010PropOp52
 70
     0
102
RTVSPost2010Prop53
 90
        2
102
RTVSPost2010PropOp53
 70
     1
102
RTVSPost2010Prop54
  1
strokes_ogs.tif
102
RTVSPost2010PropOp54
 70
     1
102
RTVSPost2010Prop55
280
     0
102
RTVSPost2010PropOp55
 70
     1
102
RTVSPost2010Prop56
140
1.0
102
RTVSPost2010PropOp56
 70
     1
102
RTVSPost2010Prop57
140
1.0
102
RTVSPost2010PropOp57
 70
     1
  0
XRECORD
  5
72B
102
{ACAD_REACTORS
330
72A
102
}
330
72A
100
AcDbXrecord
280
     1
102
RTVSPropertyOp0
 70
     1
102
RTVSPropertyOp1
 70
     1
102
RTVSPropertyOp2
 70
     1
102
RTVSPropertyOp3
 70
     1
102
RTVSPropertyOp4
 70
     1
102
RTVSPropertyOp5
 70
     1
102
RTVSPropertyOp6
 70
     1
102
RTVSPropertyOp7
 70
     1
102
RTVSPropertyOp8
 70
     1
102
RTVSPropertyOp9
 70
     1
102
RTVSPropertyOp10
 70
     1
102
RTVSPropertyOp11
 70
     1
102
RTVSPropertyOp12
 70
     1
102
RTVSPropertyOp13
 70
     1
102
RTVSPropertyOp14
 70
     1
102
RTVSPropertyOp15
 70
     1
102
RTVSPropertyOp16
 70
     1
102
RTVSPropertyOp17
 70
     1
102
RTVSPropertyOp18
 70
     1
102
RTVSPropertyOp19
 70
     1
102
RTVSPropertyOp20
 70
     1
102
RTVSPropertyOp21
 70
     1
102
RTVSPropertyOp22
 70
     1
102
RTVSPropertyOp23
 70
     1
102
RTVSPropertyOp24
 70
     1
102
RTVSPropertyOp25
 70
     1
102
RTVSPropertyOp26
 70
     1
102
RTVSPropertyOp27
 70
     1
102
RTVSPropertyOp28
 70
     1
102
RTVSPropertyOp29
 70
     1
102
RTVSPropertyOp30
 70
     1
102
RTVSPropertyOp31
 70
     1
102
RTVSPropertyOp32
 70
     1
102
RTVSPropertyOp33
 70
     1
102
RTVSPropertyOp34
 70
     1
102
RTVSPropertyOp35
 70
     1
102
RTVSPropertyOp36
 70
     1
102
RTVSPropertyOp37
 70
     1
102
RTVSPropertyOp38
 70
     1
102
RTVSPropertyOp39
 70
     1
102
RTVSPropertyOp40
 70
     1
102
RTVSPropertyOp41
 70
     1
102
RTVSPropertyOp42
 70
     1
102
RTVSPropertyOp43
 70
     1
102
RTVSPropertyOp44
 70
     1
102
RTVSPropertyOp45
 70
     1
102
RTVSPropertyOp46
 70
     1
102
RTVSPropertyOp47
 70
     1
102
RTVSPropertyOp48
 70
     1
102
RTVSPropertyOp49
 70
     1
102
RTVSPropertyOp50
 70
     1
102
RTVSPropertyOp51
 70
     0
102
RTVSPropertyOp52
 70
     0
102
RTVSPropertyOp53
 70
     1
102
RTVSPropertyOp54
 70
     1
102
RTVSPropertyOp55
 70
     1
102
RTVSPropertyOp56
 70
     1
102
RTVSPropertyOp57
 70
     1
102
RTVSPost2010Prop28
280
     0
102
RTVSPost2010PropOp28
 70
     1
102
RTVSPost2010Prop29
280
     1
102
RTVSPost2010PropOp29
 70
     1
102
RTVSPost2010Prop30
280
     1
102
RTVSPost2010PropOp30
 70
     1
102
RTVSPost2010Prop31
280
     0
102
RTVSPost2010PropOp31
 70
     1
102
RTVSPost2010Prop32
280
     0
102
RTVSPost2010PropOp32
 70
     1
102
RTVSPost2010Prop33
280
     0
102
RTVSPost2010PropOp33
 70
     1
102
RTVSPost2010Prop34
280
     0
102
RTVSPost2010PropOp34
 70
     1
102
RTVSPost2010Prop35
280
     0
102
RTVSPost2010PropOp35
 70
     1
102
RTVSPost2010Prop36
280
     0
102
RTVSPost2010PropOp36
 70
     1
102
RTVSPost2010Prop37
 90
       50
102
RTVSPost2010PropOp37
 70
     1
102
RTVSPost2010Prop38
140
0.0
102
RTVSPost2010PropOp38
 70
     1
102
RTVSPost2010Prop39
140
1.0
102
RTVSPost2010PropOp39
 70
     1
102
RTVSPost2010Prop40
 90
        0
102
RTVSPost2010PropOp40
 70
     1
102
RTVSPost2010Prop41ColorIndex
 90
       18
102
RTVSPost2010Prop41ColorRGB
 90
        0
102
RTVSPost2010PropOp41
 70
     1
102
RTVSPost2010Prop42
 90
       50
102
RTVSPost2010PropOp42
 70
     1
102
RTVSPost2010Prop43
 90
        3
102
RTVSPost2010PropOp43
 70
     1
102
RTVSPost2010Prop44ColorIndex
 90
        5
102
RTVSPost2010Prop44ColorRGB
 90
      255
102
RTVSPost2010PropOp44
 70
     1
102
RTVSPost2010Prop45
280
     0
102
RTVSPost2010PropOp45
 70
     1
102
RTVSPost2010Prop46
 90
       50
102
RTVSPost2010PropOp46
 70
     1
102
RTVSPost2010Prop47
 90
       50
102
RTVSPost2010PropOp47
 70
     1
102
RTVSPost2010Prop48
 90
       50
102
RTVSPost2010PropOp48
 70
     1
102
RTVSPost2010Prop49
280
     0
102
RTVSPost2010PropOp49
 70
     1
102
RTVSPost2010Prop50
 90
       50
102
RTVSPost2010PropOp50
 70
     1
102
RTVSPost2010Prop51ColorIndex
 90
      256
102
RTVSPost2010Prop51ColorRGB
 90
-16777216
102
RTVSPost2010PropOp51
 70
     0
102
RTVSPost2010Prop52
140
1.0
102
RTVSPost2010PropOp52
 70
     0
102
RTVSPost2010Prop53
 90
        2
102
RTVSPost2010PropOp53
 70
     1
102
RTVSPost2010Prop54
  1
strokes_ogs.tif
102
RTVSPost2010PropOp54
 70
     1
102
RTVSPost2010Prop55
280
     0
102
RTVSPost2010PropOp55
 70
     1
102
RTVSPost2010Prop56
140
1.0
102
RTVSPost2010PropOp56
 70
     1
102
RTVSPost2010Prop57
140
1.0
102
RTVSPost2010PropOp57
 70
     1
  0
XRECORD
  5
71B
102
{ACAD_REACTORS
330
71A
102
}
330
71A
100
AcDbXrecord
280
     1
102
RTVSPropertyOp0
 70
     1
102
RTVSPropertyOp1
 70
     1
102
RTVSPropertyOp2
 70
     1
102
RTVSPropertyOp3
 70
     1
102
RTVSPropertyOp4
 70
     1
102
RTVSPropertyOp5
 70
     1
102
RTVSPropertyOp6
 70
     1
102
RTVSPropertyOp7
 70
     1
102
RTVSPropertyOp8
 70
     1
102
RTVSPropertyOp9
 70
     1
102
RTVSPropertyOp10
 70
     1
102
RTVSPropertyOp11
 70
     1
102
RTVSPropertyOp12
 70
     1
102
RTVSPropertyOp13
 70
     1
102
RTVSPropertyOp14
 70
     1
102
RTVSPropertyOp15
 70
     1
102
RTVSPropertyOp16
 70
     1
102
RTVSPropertyOp17
 70
     1
102
RTVSPropertyOp18
 70
     1
102
RTVSPropertyOp19
 70
     1
102
RTVSPropertyOp20
 70
     1
102
RTVSPropertyOp21
 70
     1
102
RTVSPropertyOp22
 70
     1
102
RTVSPropertyOp23
 70
     1
102
RTVSPropertyOp24
 70
     1
102
RTVSPropertyOp25
 70
     1
102
RTVSPropertyOp26
 70
     1
102
RTVSPropertyOp27
 70
     1
102
RTVSPropertyOp28
 70
     1
102
RTVSPropertyOp29
 70
     1
102
RTVSPropertyOp30
 70
     1
102
RTVSPropertyOp31
 70
     1
102
RTVSPropertyOp32
 70
     1
102
RTVSPropertyOp33
 70
     1
102
RTVSPropertyOp34
 70
     1
102
RTVSPropertyOp35
 70
     1
102
RTVSPropertyOp36
 70
     1
102
RTVSPropertyOp37
 70
     1
102
RTVSPropertyOp38
 70
     1
102
RTVSPropertyOp39
 70
     1
102
RTVSPropertyOp40
 70
     1
102
RTVSPropertyOp41
 70
     1
102
RTVSPropertyOp42
 70
     1
102
RTVSPropertyOp43
 70
     1
102
RTVSPropertyOp44
 70
     1
102
RTVSPropertyOp45
 70
     1
102
RTVSPropertyOp46
 70
     1
102
RTVSPropertyOp47
 70
     1
102
RTVSPropertyOp48
 70
     1
102
RTVSPropertyOp49
 70
     1
102
RTVSPropertyOp50
 70
     1
102
RTVSPropertyOp51
 70
     0
102
RTVSPropertyOp52
 70
     0
102
RTVSPropertyOp53
 70
     1
102
RTVSPropertyOp54
 70
     1
102
RTVSPropertyOp55
 70
     1
102
RTVSPropertyOp56
 70
     1
102
RTVSPropertyOp57
 70
     1
102
RTVSPost2010Prop28
280
     0
102
RTVSPost2010PropOp28
 70
     1
102
RTVSPost2010Prop29
280
     1
102
RTVSPost2010PropOp29
 70
     1
102
RTVSPost2010Prop30
280
     1
102
RTVSPost2010PropOp30
 70
     1
102
RTVSPost2010Prop31
280
     0
102
RTVSPost2010PropOp31
 70
     1
102
RTVSPost2010Prop32
280
     0
102
RTVSPost2010PropOp32
 70
     1
102
RTVSPost2010Prop33
280
     0
102
RTVSPost2010PropOp33
 70
     1
102
RTVSPost2010Prop34
280
     0
102
RTVSPost2010PropOp34
 70
     1
102
RTVSPost2010Prop35
280
     0
102
RTVSPost2010PropOp35
 70
     1
102
RTVSPost2010Prop36
280
     0
102
RTVSPost2010PropOp36
 70
     1
102
RTVSPost2010Prop37
 90
       50
102
RTVSPost2010PropOp37
 70
     1
102
RTVSPost2010Prop38
140
0.0
102
RTVSPost2010PropOp38
 70
     1
102
RTVSPost2010Prop39
140
1.0
102
RTVSPost2010PropOp39
 70
     1
102
RTVSPost2010Prop40
 90
        0
102
RTVSPost2010PropOp40
 70
     1
102
RTVSPost2010Prop41ColorIndex
 90
       18
102
RTVSPost2010Prop41ColorRGB
 90
        0
102
RTVSPost2010PropOp41
 70
     1
102
RTVSPost2010Prop42
 90
       50
102
RTVSPost2010PropOp42
 70
     1
102
RTVSPost2010Prop43
 90
        3
102
RTVSPost2010PropOp43
 70
     1
102
RTVSPost2010Prop44ColorIndex
 90
        5
102
RTVSPost2010Prop44ColorRGB
 90
      255
102
RTVSPost2010PropOp44
 70
     1
102
RTVSPost2010Prop45
280
     0
102
RTVSPost2010PropOp45
 70
     1
102
RTVSPost2010Prop46
 90
       50
102
RTVSPost2010PropOp46
 70
     1
102
RTVSPost2010Prop47
 90
       50
102
RTVSPost2010PropOp47
 70
     1
102
RTVSPost2010Prop48
 90
       50
102
RTVSPost2010PropOp48
 70
     1
102
RTVSPost2010Prop49
280
     0
102
RTVSPost2010PropOp49
 70
     1
102
RTVSPost2010Prop50
 90
       50
102
RTVSPost2010PropOp50
 70
     1
102
RTVSPost2010Prop51ColorIndex
 90
      256
102
RTVSPost2010Prop51ColorRGB
 90
-16777216
102
RTVSPost2010PropOp51
 70
     0
102
RTVSPost2010Prop52
140
1.0
102
RTVSPost2010PropOp52
 70
     0
102
RTVSPost2010Prop53
 90
        2
102
RTVSPost2010PropOp53
 70
     1
102
RTVSPost2010Prop54
  1
strokes_ogs.tif
102
RTVSPost2010PropOp54
 70
     1
102
RTVSPost2010Prop55
280
     0
102
RTVSPost2010PropOp55
 70
     1
102
RTVSPost2010Prop56
140
1.0
102
RTVSPost2010PropOp56
 70
     1
102
RTVSPost2010Prop57
140
1.0
102
RTVSPost2010PropOp57
 70
     1
  0
XRECORD
  5
70D
102
{ACAD_REACTORS
330
70C
102
}
330
70C
100
AcDbXrecord
280
     1
102
RTVSPropertyOp0
 70
     1
102
RTVSPropertyOp1
 70
     1
102
RTVSPropertyOp2
 70
     1
102
RTVSPropertyOp3
 70
     1
102
RTVSPropertyOp4
 70
     1
102
RTVSPropertyOp5
 70
     1
102
RTVSPropertyOp6
 70
     1
102
RTVSPropertyOp7
 70
     1
102
RTVSPropertyOp8
 70
     1
102
RTVSPropertyOp9
 70
     1
102
RTVSPropertyOp10
 70
     1
102
RTVSPropertyOp11
 70
     1
102
RTVSPropertyOp12
 70
     1
102
RTVSPropertyOp13
 70
     1
102
RTVSPropertyOp14
 70
     1
102
RTVSPropertyOp15
 70
     1
102
RTVSPropertyOp16
 70
     1
102
RTVSPropertyOp17
 70
     1
102
RTVSPropertyOp18
 70
     1
102
RTVSPropertyOp19
 70
     1
102
RTVSPropertyOp20
 70
     1
102
RTVSPropertyOp21
 70
     1
102
RTVSPropertyOp22
 70
     1
102
RTVSPropertyOp23
 70
     1
102
RTVSPropertyOp24
 70
     1
102
RTVSPropertyOp25
 70
     1
102
RTVSPropertyOp26
 70
     1
102
RTVSPropertyOp27
 70
     1
102
RTVSPropertyOp28
 70
     1
102
RTVSPropertyOp29
 70
     1
102
RTVSPropertyOp30
 70
     1
102
RTVSPropertyOp31
 70
     1
102
RTVSPropertyOp32
 70
     1
102
RTVSPropertyOp33
 70
     1
102
RTVSPropertyOp34
 70
     1
102
RTVSPropertyOp35
 70
     1
102
RTVSPropertyOp36
 70
     1
102
RTVSPropertyOp37
 70
     1
102
RTVSPropertyOp38
 70
     1
102
RTVSPropertyOp39
 70
     1
102
RTVSPropertyOp40
 70
     1
102
RTVSPropertyOp41
 70
     1
102
RTVSPropertyOp42
 70
     1
102
RTVSPropertyOp43
 70
     1
102
RTVSPropertyOp44
 70
     1
102
RTVSPropertyOp45
 70
     1
102
RTVSPropertyOp46
 70
     1
102
RTVSPropertyOp47
 70
     1
102
RTVSPropertyOp48
 70
     1
102
RTVSPropertyOp49
 70
     1
102
RTVSPropertyOp50
 70
     1
102
RTVSPropertyOp51
 70
     0
102
RTVSPropertyOp52
 70
     0
102
RTVSPropertyOp53
 70
     1
102
RTVSPropertyOp54
 70
     1
102
RTVSPropertyOp55
 70
     1
102
RTVSPropertyOp56
 70
     1
102
RTVSPropertyOp57
 70
     1
102
RTVSPost2010Prop28
280
     0
102
RTVSPost2010PropOp28
 70
     1
102
RTVSPost2010Prop29
280
     1
102
RTVSPost2010PropOp29
 70
     1
102
RTVSPost2010Prop30
280
     1
102
RTVSPost2010PropOp30
 70
     1
102
RTVSPost2010Prop31
280
     0
102
RTVSPost2010PropOp31
 70
     1
102
RTVSPost2010Prop32
280
     0
102
RTVSPost2010PropOp32
 70
     1
102
RTVSPost2010Prop33
280
     0
102
RTVSPost2010PropOp33
 70
     1
102
RTVSPost2010Prop34
280
     0
102
RTVSPost2010PropOp34
 70
     1
102
RTVSPost2010Prop35
280
     0
102
RTVSPost2010PropOp35
 70
     1
102
RTVSPost2010Prop36
280
     0
102
RTVSPost2010PropOp36
 70
     1
102
RTVSPost2010Prop37
 90
       50
102
RTVSPost2010PropOp37
 70
     1
102
RTVSPost2010Prop38
140
0.0
102
RTVSPost2010PropOp38
 70
     1
102
RTVSPost2010Prop39
140
1.0
102
RTVSPost2010PropOp39
 70
     1
102
RTVSPost2010Prop40
 90
        0
102
RTVSPost2010PropOp40
 70
     1
102
RTVSPost2010Prop41ColorIndex
 90
       18
102
RTVSPost2010Prop41ColorRGB
 90
        0
102
RTVSPost2010PropOp41
 70
     1
102
RTVSPost2010Prop42
 90
       50
102
RTVSPost2010PropOp42
 70
     1
102
RTVSPost2010Prop43
 90
        3
102
RTVSPost2010PropOp43
 70
     1
102
RTVSPost2010Prop44ColorIndex
 90
        5
102
RTVSPost2010Prop44ColorRGB
 90
      255
102
RTVSPost2010PropOp44
 70
     1
102
RTVSPost2010Prop45
280
     0
102
RTVSPost2010PropOp45
 70
     1
102
RTVSPost2010Prop46
 90
       50
102
RTVSPost2010PropOp46
 70
     1
102
RTVSPost2010Prop47
 90
       50
102
RTVSPost2010PropOp47
 70
     1
102
RTVSPost2010Prop48
 90
       50
102
RTVSPost2010PropOp48
 70
     1
102
RTVSPost2010Prop49
280
     0
102
RTVSPost2010PropOp49
 70
     1
102
RTVSPost2010Prop50
 90
       50
102
RTVSPost2010PropOp50
 70
     1
102
RTVSPost2010Prop51ColorIndex
 90
      256
102
RTVSPost2010Prop51ColorRGB
 90
-16777216
102
RTVSPost2010PropOp51
 70
     0
102
RTVSPost2010Prop52
140
1.0
102
RTVSPost2010PropOp52
 70
     0
102
RTVSPost2010Prop53
 90
        2
102
RTVSPost2010PropOp53
 70
     1
102
RTVSPost2010Prop54
  1
strokes_ogs.tif
102
RTVSPost2010PropOp54
 70
     1
102
RTVSPost2010Prop55
280
     0
102
RTVSPost2010PropOp55
 70
     1
102
RTVSPost2010Prop56
140
1.0
102
RTVSPost2010PropOp56
 70
     1
102
RTVSPost2010Prop57
140
1.0
102
RTVSPost2010PropOp57
 70
     1
  0
XRECORD
  5
72D
102
{ACAD_REACTORS
330
72C
102
}
330
72C
100
AcDbXrecord
280
     1
102
RTVSPropertyOp0
 70
     1
102
RTVSPropertyOp1
 70
     1
102
RTVSPropertyOp2
 70
     1
102
RTVSPropertyOp3
 70
     1
102
RTVSPropertyOp4
 70
     1
102
RTVSPropertyOp5
 70
     1
102
RTVSPropertyOp6
 70
     1
102
RTVSPropertyOp7
 70
     1
102
RTVSPropertyOp8
 70
     1
102
RTVSPropertyOp9
 70
     1
102
RTVSPropertyOp10
 70
     1
102
RTVSPropertyOp11
 70
     1
102
RTVSPropertyOp12
 70
     1
102
RTVSPropertyOp13
 70
     1
102
RTVSPropertyOp14
 70
     1
102
RTVSPropertyOp15
 70
     1
102
RTVSPropertyOp16
 70
     1
102
RTVSPropertyOp17
 70
     1
102
RTVSPropertyOp18
 70
     1
102
RTVSPropertyOp19
 70
     1
102
RTVSPropertyOp20
 70
     1
102
RTVSPropertyOp21
 70
     1
102
RTVSPropertyOp22
 70
     1
102
RTVSPropertyOp23
 70
     1
102
RTVSPropertyOp24
 70
     1
102
RTVSPropertyOp25
 70
     1
102
RTVSPropertyOp26
 70
     1
102
RTVSPropertyOp27
 70
     1
102
RTVSPropertyOp28
 70
     1
102
RTVSPropertyOp29
 70
     1
102
RTVSPropertyOp30
 70
     1
102
RTVSPropertyOp31
 70
     1
102
RTVSPropertyOp32
 70
     1
102
RTVSPropertyOp33
 70
     1
102
RTVSPropertyOp34
 70
     1
102
RTVSPropertyOp35
 70
     1
102
RTVSPropertyOp36
 70
     1
102
RTVSPropertyOp37
 70
     1
102
RTVSPropertyOp38
 70
     1
102
RTVSPropertyOp39
 70
     1
102
RTVSPropertyOp40
 70
     1
102
RTVSPropertyOp41
 70
     1
102
RTVSPropertyOp42
 70
     1
102
RTVSPropertyOp43
 70
     1
102
RTVSPropertyOp44
 70
     1
102
RTVSPropertyOp45
 70
     1
102
RTVSPropertyOp46
 70
     1
102
RTVSPropertyOp47
 70
     1
102
RTVSPropertyOp48
 70
     1
102
RTVSPropertyOp49
 70
     1
102
RTVSPropertyOp50
 70
     1
102
RTVSPropertyOp51
 70
     0
102
RTVSPropertyOp52
 70
     0
102
RTVSPropertyOp53
 70
     1
102
RTVSPropertyOp54
 70
     1
102
RTVSPropertyOp55
 70
     1
102
RTVSPropertyOp56
 70
     1
102
RTVSPropertyOp57
 70
     1
102
RTVSPost2010Prop28
280
     0
102
RTVSPost2010PropOp28
 70
     1
102
RTVSPost2010Prop29
280
     1
102
RTVSPost2010PropOp29
 70
     1
102
RTVSPost2010Prop30
280
     1
102
RTVSPost2010PropOp30
 70
     1
102
RTVSPost2010Prop31
280
     0
102
RTVSPost2010PropOp31
 70
     1
102
RTVSPost2010Prop32
280
     0
102
RTVSPost2010PropOp32
 70
     1
102
RTVSPost2010Prop33
280
     0
102
RTVSPost2010PropOp33
 70
     1
102
RTVSPost2010Prop34
280
     0
102
RTVSPost2010PropOp34
 70
     1
102
RTVSPost2010Prop35
280
     0
102
RTVSPost2010PropOp35
 70
     1
102
RTVSPost2010Prop36
280
     0
102
RTVSPost2010PropOp36
 70
     1
102
RTVSPost2010Prop37
 90
       50
102
RTVSPost2010PropOp37
 70
     1
102
RTVSPost2010Prop38
140
0.0
102
RTVSPost2010PropOp38
 70
     1
102
RTVSPost2010Prop39
140
1.0
102
RTVSPost2010PropOp39
 70
     1
102
RTVSPost2010Prop40
 90
        0
102
RTVSPost2010PropOp40
 70
     1
102
RTVSPost2010Prop41ColorIndex
 90
       18
102
RTVSPost2010Prop41ColorRGB
 90
        0
102
RTVSPost2010PropOp41
 70
     1
102
RTVSPost2010Prop42
 90
       50
102
RTVSPost2010PropOp42
 70
     1
102
RTVSPost2010Prop43
 90
        3
102
RTVSPost2010PropOp43
 70
     1
102
RTVSPost2010Prop44ColorIndex
 90
        5
102
RTVSPost2010Prop44ColorRGB
 90
      255
102
RTVSPost2010PropOp44
 70
     1
102
RTVSPost2010Prop45
280
     0
102
RTVSPost2010PropOp45
 70
     1
102
RTVSPost2010Prop46
 90
       50
102
RTVSPost2010PropOp46
 70
     1
102
RTVSPost2010Prop47
 90
       50
102
RTVSPost2010PropOp47
 70
     1
102
RTVSPost2010Prop48
 90
       50
102
RTVSPost2010PropOp48
 70
     1
102
RTVSPost2010Prop49
280
     0
102
RTVSPost2010PropOp49
 70
     1
102
RTVSPost2010Prop50
 90
       50
102
RTVSPost2010PropOp50
 70
     1
102
RTVSPost2010Prop51ColorIndex
 90
      256
102
RTVSPost2010Prop51ColorRGB
 90
-16777216
102
RTVSPost2010PropOp51
 70
     0
102
RTVSPost2010Prop52
140
1.0
102
RTVSPost2010PropOp52
 70
     0
102
RTVSPost2010Prop53
 90
        2
102
RTVSPost2010PropOp53
 70
     1
102
RTVSPost2010Prop54
  1
strokes_ogs.tif
102
RTVSPost2010PropOp54
 70
     1
102
RTVSPost2010Prop55
280
     0
102
RTVSPost2010PropOp55
 70
     1
102
RTVSPost2010Prop56
140
1.0
102
RTVSPost2010PropOp56
 70
     1
102
RTVSPost2010Prop57
140
1.0
102
RTVSPost2010PropOp57
 70
     1
  0
ENDSEC
  0
SECTION
  2
THUMBNAILIMAGE
 90
    17448
310
28000000800000008000000001000800000000000000000000000000000000000000000000000000FFFFFF000000FF0000FFFF0000FF0000FFFF0000FF000000FF00FF000000000080808000C0C0C0000000FF007F7FFF000000A5005252A50000007F003F3F7F0000004C0026264C000000260013132600003FFF007F9FFF
310
000029A5005267A500001F7F003F4F7F0000134C00262F4C000009260013172600007FFF007FBFFF000052A500527CA500003F7F003F5F7F0000264C0026394C0000132600131C260000BFFF007FDFFF00007CA5005291A500005F7F003F6F7F0000394C0026424C00001C26001321260000FFFF007FFFFF0000A5A50052A5
310
A500007F7F003F7F7F00004C4C00264C4C00002626001326260000FFBF007FFFDF0000A57C0052A59100007F5F003F7F6F00004C3900264C420000261C001326210000FF7F007FFFBF0000A5520052A57C00007F3F003F7F5F00004C2600264C39000026130013261C0000FF3F007FFF9F0000A5290052A56700007F1F003F
310
7F4F00004C1300264C2F00002609001326170000FF00007FFF7F0000A5000052A55200007F00003F7F3F00004C0000264C260000260000132613003FFF00009FFF7F0029A5000067A552001F7F00004F7F3F00134C00002F4C260009260000172613007FFF0000BFFF7F0052A500007CA552003F7F00005F7F3F00264C0000
310
394C2600132600001C261300BFFF0000DFFF7F007CA5000091A552005F7F00006F7F3F00394C0000424C26001C26000021261300FFFF0000FFFF7F00A5A50000A5A552007F7F00007F7F3F004C4C00004C4C26002626000026261300FFBF0000FFDF7F00A57C0000A59152007F5F00007F6F3F004C3900004C422600261C00
310
0026211300FF7F0000FFBF7F00A5520000A57C52007F3F00007F5F3F004C2600004C39260026130000261C1300FF3F0000FF9F7F00A5290000A56752007F1F00007F4F3F004C1300004C2F26002609000026171300FF000000FF7F7F00A5000000A55252007F0000007F3F3F004C0000004C2626002600000026131300FF00
310
3F00FF7F9F00A5002900A55267007F001F007F3F4F004C0013004C262F002600090026131700FF007F00FF7FBF00A5005200A5527C007F003F007F3F5F004C0026004C2639002600130026131C00FF00BF00FF7FDF00A5007C00A55291007F005F007F3F6F004C0039004C26420026001C0026132100FF00FF00FF7FFF00A5
310
00A500A552A5007F007F007F3F7F004C004C004C264C002600260026132600BF00FF00DF7FFF007C00A5009152A5005F007F006F3F7F0039004C0042264C001C002600211326007F00FF00BF7FFF005200A5007C52A5003F007F005F3F7F0026004C0039264C00130026001C1326003F00FF009F7FFF002900A5006752A500
310
1F007F004F3F7F0013004C002F264C000900260017132600000000002D2D2D005B5B5B0089898900B7B7B700B3B3B30000000000000000000000000000000000000000000000000000000000000000000000000000000000000000000000000000000000000000000000000000000000000000000000000000000000000000
310
00000000000000000000000000000000000000000000000000000000000000000000000000000000000000000000000000000000000000000000000000000000000000000000000000000000000000000000000000000000000000000000000000000000000000000000000000000000000000000000000000000000000000
310
00000000000000000000000000000000000000000000000000000000000000000000000000000000000000000000000000000000000000000000000000000000000000000000000000000000000000000000000000000000000000000000000000000000000000000000000000000000000000000000000000000000000000
310
00000000000000000000000000000000000000000000000000000000000000000000000000000000000000000000000000000000000000000000000000000000000000000000000000000000000000000000000000000000000000000000000000000000000000000000000000000000000000000000000000000000000000
310
00000000000000000000000000000000000000000000000000000000000000000000000000000000000000000000000000000000000000000000000000000000000000000000000000000000000000000000000000000000000000000000000000000000000000000000000000000000000000000000000000000000000000
310
00000000000000000000000000000000000000000000000000000000000000000000000000000000000000000000000000000000000000000000000000000000000000000000000000000000000000000000000000000000000000000000000000000000000000000000000000000000000000000000000000000000000000
310
00000000000000000000000000000000000000000000000000000000000000000000000000000000000000000000000000000000000000000000000000000000000000000000000000000000000000000000000000000000000000000000000000000000000000000000000000000000000000000000000000000000000000
310
00000000000000000000000000000000000000000000000000000000000000000000000000000000000000000000000000000000000000000000000000000000000000000000000000000000000000000000000000000000000000000000000000000000000000000000000000000000000000000000000000000000000000
310
00000000000000000000000000000000000000000000000000000000000000000000000000000000000000000000000000000000000000000000000000000000000000000000000000000000000000000000000000000000000000000000000000000000000000000000000000000000000000000000000000000000000000
310
00000000000000000000000000000000000000000000000000000000000000000000000000000000000000000000000000000000000000000000000000000000000000000000000000000000000000000000000000000000000000000000000000000000000000000000000000000000000000000000000000000000000000
310
00000000000000000000000000000000000000000000000000000000000000000000000000000000000000000000000000000000000000000000000000000000000000000000000000000000000000000000000000000000000000000000000000000000000000000000000000000000000000000000000000000000000000
310
00000000000000000000000000000000000000000000000000000000000000000000000000000000000000000000000000000000000000000000000000000000000000000000000000000000000000000000000000000000000000000000000000000000000000000000000000000000000000000000000000000000000000
310
00000000000000000000000000000000000000000000000000000000000000000000000000000000000000000000000000000000000000000000000000000000000000000000000000000000000000000000000000000000000000000000000000000000000000000000000000000000000000000000000000000000000000
310
00000000000000000000000000000000000000000000000000000000000000000000000000000000000000000000000000000000000000000000000000000000000000000000000000000000000000000000000000000000000000000000000000000000000000000000000000000000000000000000000000000000000000
310
00000000000000000000000000000000000000000000000000000000000000000000000000000000000000000000000000000000000000000000000000000000000000000000000000000000000000000000000000000000000000000000000000000000000000000000000000000000000000000000000000000000000000
310
00000000000000000000000000000000000000000000000000000000000000000000000000000000000000000000000000000000000000000000000000000000000000000000000000000000000000000000000000000000000000000000000000000000000000000000000000000000000000000000000000000000000000
310
00000000000000000000000000000000000000000000000000000000000000000000000000000000000000000000000000000000000000000000000000000000000000000000000000000000000000000000000000000000000000000000000000000000000000000000000000000000000000000000000000000000000000
310
00000000000000000000000000000000000000000000000000000000000000000000000000000000000000000000000000000000000000000000000000000000000000000000000000000000000000000000000000000000000000000000000000000000000000000000000000000000000000000000000000000000000000
310
00000000000000000000000000000000000000000000000000000000000000000000000000000000000000000000000000000000000000000000000000000000000000000000000000000000000000000000000000000000000000000000000000000000000000000000000000000000000000000000000000000000000000
310
00000000000000000000000000000000000000000000000000000000000000000000000000000000000000000000000000000000000000000000000000000000000000000000000000000000000000000000000000000000000000000000000000000000000000000000000000000000000000000000000000000000000000
310
00000000000000000000000000000000000000000000000000000000000000000000000000000000000000000000000000000000000000000000000000000000000000000000000000000000000000000000000000000000000000000000000000000000000000000000000000000000000000000000000000000000000000
310
00000000000000000000000000000000000000000000000000000000000000000000000000000000000000000000000000000000000000000000000000000000000000000000000000000000000000000000000000000000000000000000000000000000000000000000000000000000000000000000000000000000000000
310
00000000000000000000000000000000000000000000000000000000000000000000000000000000000000000000000000000000000000000000000000000000000000000000000000000000000000000000000000000000000000000000000000000000000000000000000000000000000000000000000000000000000000
310
00000000000000000000000000000000000000000000000000000000000000000000000000000000000000000000000000000000000000000000000000000000000000000000000000000000000000000000000000000000000000000000000000000000000000000000000000000000000000000000000000000000000000
310
00000000000000000000000000000000000000000000000000000000000000000000000000000000000000000000000000000000000000000000000000000000000000000000000000000000000000000000000000000000000000000000000000000000000000000000000000000000000000000000000000000000000000
310
00000000000000000000000000000000000000000000000000000000000000000000000000000000000000000000000000000000000000000000000000000000000000000000000000000000000000000000000000000000000000000000000000000000000000000000000000000000000000000000000000000000000000
310
00000000000000000000000000000000000000000000000000000000000000000000000000000000000000000000000000000000000000000000000000000000000000000000000000000000000000000000000000000000000000000000000000000000000000000000000000000000000000000000000303030300000000
310
00000000000000000000000000000000000000000000000000000000000000000000000000000000000000000000000000000000000000000000000000000000000000000000000000000000000000000000000000000000000000000000000000000000000000000000000000000000000000000000000003030303000000
310
00000000000000000000000000000000000000000000000000000000000000000000000000000000000000000000000000000000000000000000000000000000000000000000000000000000000000000000000000000000000000000000000000000000000000000000000000000000000000000000000000030303030000
310
00000000000000000000000000000000000000000000000000000000000000000000000000000000000000000000000000000000000000000000000000000000000000000000000000000000000000000000000000000000000000000000000000000000000000000000000000000000000000000003000000000307070300
310
00000000000000000000000000000000000000000000000000000000000000000000000000000000000000000000000000000000000000000000000000000000000000000000000000000000000000000000000000000000000000000000000000000000000000000000000000000000000000000003030303070007030007
310
00000000000000000000000000000000000000000000000000000000000000000000000000000000000000000000000000000000000000000000000000000000000000000000000000000000000000000000000000000000000000000000000000000000000000000000000000000000000000000000030303030307070307
310
07070000000000000000000000000000000000000000000000000000000000000000000000000000000000000000000000000000000000000000000000000000000000000000000000000000000000000000000000000000000000000000000000000000000000000000000000000000000000000000000000000000000003
310
00000000000000000000000000000000000000000000000000000000000000000000000000000000000000000000000000000000000000000000000000000000000000000000000000000000000000000000000000000000000000000000000000000000000000000000000000000000000000000000000000000000000000
310
00000000000000000000000000000000000000000000000000000000000000000000000000000000000000000000000000000000000000000000000000000000000000000000000000000000000000000000000000000000000000000000000000000000000000000000000000000000000000000000000000000000000000
310
00000000000000000000000000000000000000000000000000000000000000000000000000000000000000000000000000000000000000000000000000000000000000000000000000000000000000000000000000000000000000000000000000000000000000000000000000000000000000000000000000000000000003
310
03030303030300000000000000000000000003030300000000000000000000000000000000000000000000000000000000000000000000000000000000000000000000000000000000000000000000000000000000000000000000000000000000000000000000000000000000000000000000000000000000000000000000
310
03030000030003000000000000000000000000030303000000000000000000000000000000000000000000000000000000000000000000000000000000000000000000000000000000000000000000000000000000000000000000000000000000000000000000000000000000000000000000000000000000000000000000
310
00030300030303030303000000000000000003030303030000000000000000000000000000000000000000000000000000000000000000000000000000000000000000000000000000000000000000000000000000000000000000000000000000000000000000000000000000000000000000000000000000000000000000
310
00000303030300030300030000000000000000030303000300000000000000000000000000000000000000000000000000000000000000000000000000000000000000000000000000000000000000000000000000000000000000000000000000000000000000000000000000000000000000000000000000000000000000
310
00000003030003000303000000000000000000000000030003000000000000000000000000000000000000000000000000000000000000000000000000000000000000000000000000000000000000000000000000000000000000000000000000000000000000000000000000000000000000000000000000000000000000
310
00030303030307030703030303030303030300000000000300030000000000000000000000000000000000000000000000000000000000000000000000000000000000000000000000000000000000000000000000000000000000000000000000000000000000000000000000000000000000000000000000000000000000
310
00030300000307030303030303030303000003000000000007000300000000000000000000000000000000000000000000000000000000000000000000000000000000000000000000000000000000000000000000000000000000000000000000000000000000000000000000000000000000000000000000000000000000
310
00000003030303070003000307000000030000030000000000070703030300000000000000000000000000000000000000000000000000000000000000000000000000000000000000000000000000000000000000000000000000000000000000000000000000000000000000000000000000000000000000000000000000
310
00000000030000070000030703030303000300000300000000000700000003000000000000000000000000000000000000000000000000000000000000000000000000000000000000000000000000000000000000000000000000000000000000000000000000000000000000000000000000000000000000000000000000
310
00000000000300000700000300070700030003000003000000000007000700030000000000000000000000000000000000000000000000000000000000000000000000000000000000000000000000000000000000000000000000000000000000000000000000000000000000000000000000000000000000000000000000
310
00000000000303000003030303030303030300030003030000000000030303030300000000000000000000000000000000000000030303030303030303030000000000000000000000000000000000000000000000000000000000000000000000000000000000000000000000000000000000000000000000000000000000
310
00000000000000030000070000030007070303030300030300000000000700070303000000000000000000000000000000000000000300000000030000000300000000000000000000000000000000000000000000000000000000000000000000000000000000000000000000000000000000000000000000000000000000
310
00000000000000000300000000000307030303030003000003000000000007000700030000000000000000000000000000000000000003030303030303030003000000000000000000000000000000000000000000000000000000000000000000000000000000000000000000000000000000000000000000000000000000
310
00000000000000000003030303070003000007000000030000030000000000070703030300000000000000000000000000000000000000030300000303000300030000000000000000000000000000000000000000000000000000000000000000000000000000000000000000000000000000000000000000000000000000
310
00000000000000000003030000030703030303030303030300000300000000000700000000000000000000000000000000000000000000000303070707070703070303030000000000000000000000000000000000000000000000000000000000000000000000000000000000000000000000000000000000000000000000
310
00000000000000000000030303030303070303070303030303030303000000000007000000000000000000000000000000000000000000000007030007030700030007000300000000000000000000000000000000000000000000000000000000000000000000000000000000000000000000000000000000000000000000
310
00000000000000000000000000000003000003000300000000000000000000000000000000000000000000000000000000000000000000000003030303030303030303070003000000000000000000000000000000000000000000000000000000000000000000000000000000000000000000000000000000000000000000
310
00000000000000000000000000000000030000030000030300000000000000000000000000000000000000000000000000000000000000000000000307000703070007070703030000000000000000000000000000000000000000000000000000000000000000000000000000000000000000000000000000000000000000
310
00000000000000000000000000000000000300000300000000030303030300000000000000000000000000000000000000000000000000000000000307070707030707070703030300000000000000000000000000000000000000000000000000000000000000000000000000000000000000000000000000000000000000
310
00000000000000000000000000000000000003000003000000000303030303030000000000000000000000000000000000000000000000000000000300000000000300000000000000000000000000000000000000000000000000000000000000000000000000000000000000000000000000000000000000000000000000
310
00000000000000000000000000000000000000030000030000000000030003030300000000000000000000000000000000000000000003030303030300000000000000000000000000000000000000000000000000000000000000000000000000000000000000000000000000000000000000000000000000000000000000
310
00000000000000000000000000000000000000000303030300000000000000000000000000000000000000000000000000000000000000000303030303000000000000000000000000000000000000000000000000000000000000000000000000000000000000000000000000000000000000000000000000000000000000
310
00000000000000000000000000000000000000000000030300000000000000000000000000000000000000000000000000000000000000000000000000000000000000000000000000000000000000000000000000000000000000000000000000000000000000000000000000000000000000000000000000000000000000
310
00000000000000000000000000000000000000000000000300000000000000000000000000000000000000000000000000000000000000000000000000000000000000000000000000000000000000000000000000000000000000000000000000000000000000000000000000000000000000000000000000000000000000
310
00000000000000000000000000000000000000000000000000000000000000000000000000000000000000000000000000000000000000000000000000000000000000000000000000000000000000000000000000000000000000000000000000000000000000000000000000000000000000000000000000000000000000
310
00000000000000000000000000000000000000000000000000000000000000000000000000000000000000000000000000000000000000000000000000000000000000000000000000000000000000000000000000000000000000000000000000000000000000000000000000000000000000000000000000000000000000
310
00000000000000000000000000000000000000000000000000000000000000000000000000000000000000000000000000000000000000000000000000000000000000000000000000000000000000000000000000000000000000000000000000000000000000000000000000000000000000000000000000000000000000
310
00000000000000000000000000000000000000000000000000000000000000000000000000000000000000000000000000000000000000000000000000000000000000000000000000000000000000000000000000000000000000000000000000000000000000000000000000000000000000000000000000000000000000
310
00000000000000000000000000000000000000000000000000000000000000000000000000000000000000000000000000000000000000000000000000000000000000000000000000000000000000000000000000000000000000000000000000000000000000000000000000000000000000000000000000000000000000
310
00000000000000000000000000000000000000000000000000000000000000000000000000000000000000000000000000000000000000000000000000000000000000000000000000000000000000000000000000000000000000000000000000000000000000000000000000000000000000000000000000000000000000
310
00000000000000000000000000000000000000000000000000000000000000000000000000000000000000000000000000000000000000000000000000000000000000000000000000000003030300000000000000000000000000000000000000000000000000000000000000000000000000000000000000000000000000
310
00000000000000000000000000000000000000000000000000000000000000000000000000000000000000000000000000000000000000000000000000000000000000000000000000000000030303000000000003000000000000000000000000000000000000000000000000000000000000000000000000000000000000
310
00000000000000000000000000000000000000000000000000000000000000000000000000000000000000000000000000000000000000000000000000000000000000000000000000000000000303030000000003030000000000000000000000000000000000000000000000000000000000000000000000000000000000
310
00000000000000000000000000000000000000000000000000000000000000000000000000000000000000000303030303030000000000000000000000000000000000000000000000000000000003030303030303030300000000000000000000000000000000000000000000000000000000000000000000000000000000
310
00000000000000000000000000000000000000000000000000000000000000000000000000000000000000000003030303030303000000000000000000000000000000000000000000000303070707070307070307030303000000000000000000000000000000000000000000000000000000000000000000000000000000
310
00000000000000000000000000000000000000000000000000000000000000000000000000000000000000000003000303030300030000000000000000000000000000000000000000000003000703070703070707030303030000000000000000000000000000000000000000000000000000000000000000000000000000
310
00000000000000000000000000000000000000000000000000000000000000000000000000000000000000000000030000000000000000000000000000000000000000000000000000000000030000000303030303000000030300000000000000000000000000000000000000000000000000000000000000000000000000
310
00000000000000000000000000000000000000000000000000000000000000000000000000000000000000000000030000000000000000000000000000000000000000000000000000000000030300000007030303070000000303000000000000000000000000000000000000000000000000000000000000000000000000
310
00000000000000000000000000000000000000000000000000000000000000000000000000000000000000000300000300000000000000000000000000000000000000000000000000000000000303000000070003000700000000000000000000000000000000000000000000000000000000000000000000000000000000
310
00000000000000000000000000000000000000000000000000000000030303030303030303030303030303070003000307070000000000000000000000000000000000000000000000000000000003030000000700030007000000000000000000000000000000000000000000000000000000000000000000000000000000
310
00000000000000000000000000000000000000000000000000000000000300030303030303030707070007070707030703030303030303030303030303030300000000000000000000000000000000030300000003030303030000000000000000000000000000000000000000000000000000000000000000000000000000
310
00000000000000000000000000000000000000000000000000000000000003000300000007000007000700070707000303070707000700000700000700000003000000000000000000000000000000000303000003000303030303000000000000000000000000000000000000000000000000000000000000000000000000
310
00000000000000000000000000000000000000000000000000000000000000030003000000070000070007070707070303030707070707000007000007000000030000000000000000000000000000000000030003030303030303030000000000000000000000000000000000000000000000000000000000000000000000
310
00000000000000000000000000000000000000000000000000000000000000030300030000000700000700070007070703030703070700070000070000070003030300000000000000000000000000000000000300030303030303030303000000000000000000000000000000000000000000000000000000000000000000
310
00000000000000000000000000000000000000000000000000000000000000000303030300000003030303030303030303030303030303030300000703030303030303000000000000000000000000000000000003030303030303030303030300000000000000000000000000000000000000000000000000000000000000
310
00000000000000000000000000000000000000000000000000000000000000000003030003000000070000070007000707070303030307070007000007000007000303030000000000000000000000000000000000000003030303030303030300000000000000000000000000000000000000000000000000000000000000
310
00000000000000000000000000000000000000000000000000000000000000000000000300030000000700000700070707070700030007070707070000070000070000000300000000000000000000000000000000000000000303030303030300000000000000000000000000000000000000000000000000000000000000
310
00000000000000000000000000000000000000000000000000000000000000000000000003000300000007070007000300000707000300070707000707000700070700000003000000000000000000000000000000000000000000030303030303000000000000000000000000000000000000000000000000000000000000
310
00000000000000000000000000000000000000000000000000000000000000000000000000030003030303030303070703000707070703070303030303030303030303030303030000000000000000000000000000000000000000000003030000000300000000000000000000000000000000000000000000000000000000
310
00000000000000000000000000000000000000000000000000000000000000000000000000000303030303030303030303030303030300030000030700000000000000030000000000000000000000000000000000000000000000000000000000000000030000000000000000000000000000000000000000000000000000
310
00000000000000000000000000000000000000000000000000000000000000000000000000000000000000000003000000000300000003000000000300000000000000000300000000000000000000000000000000000000000000000000000000000000000003030303000000000000000000000000000000000000000000
310
00000000000000000000000000000000000000000000000000000000000000000000000000000000000000000000030000000003000000030000000003000000000000000003000000000000000000000000000000000000000000000000000000000000000000030303030000000000000000000000000000000000000000
310
00000000000000000000000000000000000000000000000000000000000000000000000000000000000000000000000303030303030000000300000000030000000000000000030000000000000000000000000000000000000000000000000000000000000000000000000000000000000000000000000000000000000000
310
00000000000000000000000000000000000000000000000000000000000000000000000000000000000000000000000003000303000000000003000000000300000000000000000300000000000000000000000000000000000000000000000000000000000000000000000000000000000000000000000000000000000000
310
00000000000000000000000000000000000000000000000000000000000000000000000000000000000000000000000000030000000000000000030303030003000000000000000003000000000000000000000000000000000000000000000000000000000000000000000000000000000000000000000000000000000000
310
00000000000000000000000000000000000000000000000000000000000000000000000000000000000000000000000000000303030303030303030303030303030000000000000000030000000000000000000000000000000000000000000000000000000000000000000000000000000000000000000000000000000000
310
00000000000000000000000000000000000000000000000000000000000000000000000000000000000000000000000000000003000303030303030000030303030000000000000000000300000000000000000000000000000000000000000000000000000000000000000000000000000000000000000000000000000000
310
00000000000000000000000000000000000000000000000000000000000000000000000000000000000000000000000000000000030000000000000000000300030300000000000000000003000000000000000000000000000000000000000000000000000000000000000000000000000000000000000000000000000000
310
00000000000000000000000000000000000000000000000000000000000000000000000000000000000000000000000000000000000303030303030303030303030303030303030303030303030000000000000000000000000000000000000000000000000000000000000000000000000000000000000000000000000000
310
00000000000000000000000000000000000000000000000000000000000000000000000000000000000000000000000000000000000000000000000000000000000303000000000000000000000000000000000000000000000000000000000000000000000000000000000000000000000000000000000000000000000000
310
00000000000000000000000000000000000000000000000000000000000000000000000000000000000000000000000000000000000000000000000000000000000003030000000000000000000000000000000000000000000000000000000000000000000000000000000000000000000000000000000000000000000000
310
00000000000000000000000000000000000000000000000000000000000000000000000000000000000000000000000000000000000000000000000000000000000000000000000000000000000000000000000000000000000000000000000000000000000000000000000000000000000000000000000000000000000000
310
00000000000000000000000000000000000000000000000000000000000000000000000000000000000000000000030303030303030303030303030303030000000000000000000000000000000000000000000000000000000000000000000000000000000000000000000000000000000000000000000000000000000000
310
00000000000000000000000000000000000000000000000000000000000000000000000000000000000000000000000003030300000003030303000303030300000000000000000000000000000000000000000000000000000000000000000000000000000000000000000000000000000000000000000000000000000000
310
00000000000000000000000000000000000000000000000000000000000000000000000000000000000000000000000000030303030300030303030303030303000000000000000000000000000000000000000000000000000000000000000000000000000000000000000000000000000000000000000000000000000000
310
00000000000000000000000000000000000000000000000000000000000000000000000000000000000000000000000000000300030300000300000300030003030000000000000000000000000000000000000000000000000000000000000000000000000000000000000000000000000000000000000000000000000000
310
00000000000000000000000000000000000000000000000000000000000000000000000000000000000000000000000000000000000000000000000000000000000000000000000000000000000000000000000000000000000000000000000000000000000000000000000000000000000000000000000000000000000000
310
00000000000000000000000000000000000000000000000000000000000000000000000000000000000000000000000000000000000000000000000000000000000000000000000000000000000000000000000000000000000000000000000000000000000000000000000000000000000000000000000000000000000000
310
00000000000000000000000000000000000000000000000000000000000000000000000000000000000000000000000000000000000000000000000000000000000000000000000000000000000000000000000000000000000000000000000000000000000000000000000000000000000000000000000000000000000000
310
00000000000000000000000000000000000000000000000000000000000000000000000000000000000000000000000000000000000000000000000000000000000000000000000000000000000000000000000000000000000000000000000000000000000000000000000000000000000000000000000000000000000000
310
00000000000000000000000000000000000000000000000000000000000000000000000000000000000000000000000000000000000000000000000000000000000000000000000000000000000000000000000000000000000000000000000000000000000000000000000000000000000000000000000000000000000000
310
00000000000000000000000000000000000000000000000000000000000000000000000000000000000000000000000000000000000000000000000000000000000000000000000000000000000000000000000000000000000000000000000000000000000000000000000000000000000000000000000000000000000000
310
00000000000000000000000000000000000000000000000000000000000000000000000000000000000000000000000000000000000000000000000000000000000000000000000000000000000000000000000000000000000000000000000000000000000000000000000000000000000000000000000000000000000000
310
00000000000000000000000000000000000000000000000000000000000000000000000000000000000000000000000000000000000000000000000000000000000000000000000000000000000000000000000000000000000000000000000000000000000000000000000000000000000000000000000000000000000000
310
00000000000000000000000000000000000000000000000000000000000000000000000000000000000000000000000000000000000000000000000000000000000000000000000000000000000000000000000000000000000000000000000000000000000000000000000000000000000000000000000000000000000000
310
00000000000000000000000000000000000000000000000000000000000000000000000000000000000000000000000000000000000000000000000000000000000000000000000000000000000000000000000000000000000000000000000000000000000000000000000000000000000000000000000000000000000000
310
00000000000000000000000000000000000000000000000000000000000000000000000000000000000000000000000000000000000000000000000000000000000000000000000000000000000000000000000000000000000000000000000000000000000000000000000000000000000000000000000000000000000000
310
00000000000000000000000000000000000000000000000000000000000000000000000000000000000000000000000000000000000000000000000000000000000000000000000000000000000000000000000000000000000000000000000000000000000000000000000000000000000000000000000000000000000000
310
00000000000000000000000000000000000000000000000000000000000000000000000000000000000000000000000000000000000000000000000000000000000000000000000000000000000000000000000000000000000000000000000000000000000000000000000000000000000000000000000000000000000000
310
00000000000000000000000000000000000000000000000000000000000000000000000000000000000000000000000000000000000000000000000000000000000000000000000000000000000000000000000000000000000000000000000000000000000000000000000000000000000000000000000000000000000000
310
00000000000000000000000000000000000000000000000000000000000000000000000000000000000000000000000000000000000000000000000000000000000000000000000000000000000000000000000000000000000000000000000000000000000000000000000000000000000000000000000000000000000000
310
00000000000000000000000000000000000000000000000000000000000000000000000000000000000000000000000000000000000000000000000000000000000000000000000000000000000000000000000000000000000000000000000000000000000000000000000000000000000000000000000000000000000000
310
00000000000000000000000000000000000000000000000000000000000000000000000000000000000000000000000000000000000000000000000000000000000000000000000000000000000000000000000000000000000000000000000000000000000000000000000000000000000000000000000000000000000000
310
00000000000000000000000000000000000000000000000000000000000000000000000000000000000000000000000000000000000000000000000000000000000000000000000000000000000000000000000000000000000000000000000000000000000000000000000000000000000000000000000000000000000000
310
00000000000000000000000000000000000000000000000000000000000000000000000000000000000000000000000000000000000000000000000000000000000000000000000000000000000000000000000000000000000000000000000000000000000000000000000000000000000000000000000000000000000000
310
00000000000000000000000000000000000000000000000000000000000000000000000000000000000000000000000000000000000000000000000000000000000000000000000000000000000000000000000000000000000000000000000000000000000000000000000000000000000000000000000000000000000000
310
00000000000000000000000000000000000000000000000000000000000000000000000000000000000000000000000000000000000000000000000000000000000000000000000000000000000000000000000000000000000000000000000000000000000000000000000000000000000000000000000000000000000000
310
00000000000000000000000000000000000000000000000000000000000000000000000000000000000000000000000000000000000000000000000000000000000000000000000000000000000000000000000000000000000000000000000000000000000000000000000000000000000000000000000000000000000000
310
00000000000000000000000000000000000000000000000000000000000000000000000000000000000000000000000000000000000000000000000000000000000000000000000000000000000000000000000000000000000000000000000000000000000000000000000000000000000000000000000000000000000000
310
00000000000000000000000000000000000000000000000000000000000000000000000000000000000000000000000000000000000000000000000000000000000000000000000000000000000000000000000000000000000000000000000000000000000000000000000000000000000000000000000000000000000000
310
00000000000000000000000000000000000000000000000000000000000000000000000000000000000000000000000000000000000000000000000000000000000000000000000000000000000000000000000000000000000000000000000000000000000000000000000000000000000000000000000000000000000000
310
00000000000000000000000000000000000000000000000000000000000000000000000000000000000000000000000000000000000000000000000000000000000000000000000000000000000000000000000000000000000000000000000000000000000000000000000000000000000000000000000000000000000000
310
00000000000000000000000000000000000000000000000000000000000000000000000000000000000000000000000000000000000000000000000000000000000000000000000000000000000000000000000000000000000000000000000000000000000000000000000000000000000000000000000000000000000000
310
00000000000000000000000000000000000000000000000000000000000000000000000000000000000000000000000000
  0
ENDSEC
  0
EOF
